» » »

Capital Lights, Out Of Control Tabs (ver.1)

Artists:  A B C D E F G H I J K L M N O P Q R S T U V W X Y Z # 

Out Of Control Tabs (ver.1)

Capital Lights Tabs
 Rating:
4/5 (6 votes)
Out Of Control lessons Tabs too difficult? Try these video lessons and learn fast
1
                band: capital lights
tuning: drop C
intro x 2
D|-----------------------------------------------------------|
A|-----------------------------------------------------------|
F|-----------------------------------------------------------|
C|--55-555---00-000----9999-7777-----------------------------|
G|--55-555---00-000----9999-7777-----------------------------|
C|--55-555---00-000----9999-7777-----------------------------|

verse x2
D|---------------------------------------------------------------------|
A|---------------------------------------------------------------------|
F|---------------------------------------------------------------------|
C|---99-99-99-99-----55-55-00-00-----99-99-99-99---55-55-2222----------|
G|---99-99-99-99-----55-55-00-00-----99-99-99-99---55-55-2222----------|
C|---99-99-99-99-----55-55-00-00-----99-99-99-99---55-55-2222----------|

pre chorus
D|-----------------------------------------------------------|
A|-----------------------------------------------------------|
F|-----------------------------------------------------------|
C|--9--------------------------------------------------------|
G|--9--------------------------------------------------------|
C|--9--------------------------------------------------------|
pm untill chorus 
chorus x2 
D|-----------------------------------------------------------|
A|-----------------------------------------------------------|
F|-----------------------------------------------------------|
C|---5555---------0000-----9999-----7777---------------------|
G|---5555---------0000-----9999-----7777---------------------|
C|---5555---------0000-----9999-----7777---------------------|
  chorus part 2x1
D|--------------------------------------------------------|
A|--------------------------------------------------------|
F|--------77------77-----77-------------------------------|
C|----5---xx--5---xx--0--xx--------99-77------------------|
G|----5---55--5---55--0--55--------99-77------------------|
C|----5-------5-------0------------99-77------------------|
   part 3
D|-----------------------------------------------------------|
A|-----------------------------------------------------------|
F|-----------------------------------------------------------|
C|-----55555555-77777777----55555555-77777777----------------|
G|-----55555555-77777777----55555555-77777777----------------|
C|-----55555555-77777777----55555555-77777777----------------|

repeat intro once except add this going into the second verse
D|-----------------------------------------------------------|
A|-----------------------------------------------------------|
F|-----------------------------------------------------------|
C|--77-5-4---------------------------------------------------|
G|-----------------------------------------------------------|
C|-----------------------------------------------------------|

repeat verse x3

repeat chorus x2 along with the rest of the chorus parts

bridge

D|-----------------------------------------------------------|
A|-----------------------------------------------------------|
F|-----------------------------------------------------------|
C|--9--------------------------------------------------------|
G|--9--------------------------------------------------------|
C|--9--------------------------------------------------------|
pm 16x

D|-----------------------------------------------------------------|
A|-----------------------------------------------------------------|
F|------7-7-77-----7-7-77------7-7-77----7-7-77--------------------|
C|---5--x-x-xx--0--x-x-xx---5--xx-xx---7-x-x-xx-----7--9--5--7-----|
G|---5--5-5-55--0--5-5-55---5--5-5-55--7-5-5-55-----7--9--5--7-----|
C|---5----------0-----------5----------7------------7--9--5--7-----|
                                                   x8 x8 x8 x8
repeat chorus untill end
            
Submit corrections

comments powered by Disqus
↑ Back to top | Capital Lights Tabs for Out Of Control. Lyrics for acoustic guitar and electric guitar. 1 Tablatures and chords are parodies/interpretations of the original songs. You may use it for private study, scholarship, research or language learning purposes only