» » »

Capdown, Kained But Able Tabs (ver.1)

Artists:  A B C D E F G H I J K L M N O P Q R S T U V W X Y Z # 

Kained But Able Tabs (ver.1)

Capdown Tabs
Rating:
4/5 (1 vote)
Kained But Able lessons Tabs too difficult? Try these video lessons and learn fast
                Intro

E-------------------------------------------------------------------
B-------------------------------------------------------------------
G-------------------------------------------------------------------
D-------8-----------------------------------------------------------
A-------8----------------------------------------4---4--------------
E-------6--------------------------------------6---6----------------
             just let ring and do whatever...         etc.
     
  Verse1
E-------------------------------------------------------------------
B-------PM-----------------------Let Ring---------------------------
G-------------------------------------------------------------------
D----8->---11--10-----------------------------11-10-4-3-6-----------
A----8->---11--10---x2--------4---4---4---4---11-10-4-3-6-----------
E----6->---9---8------------6---6---6---6-----9--8--2-1-4-----------
 I just wanna be free to...
 

  Verse2
E-------------------------------------------------------------------
B-------------------------------------------------------------------
G-------------------------------------------------------------------
D-------------------------------------------------------------------
A--------4---4---4--7/---x4-----------------------------------------
E------6---6---6----------------------------------------------------
 
 

  Pre-Chorus
E-------------------------------------------------------------------
B-------------------------------------------------------------------
G-------------------------------------------------------------------
D----5---8-7-5---5-4-5------5---8-7--11-8---------------------------
A----5---8-7-5---5-4-5------5---8-7--11-8-----------x2---------------
E----3---6-5-3---3-2-3------3---6-5--9--6---------------------------
 
 

  Chorus
E-------------------------------------------------------------------
B-------------------------------------------------------------------
G-------------------------------------------------------------------
D-----5-------------------------------11-8--------------------------
A-----5-------------------------------11-8--------------------------
E-----3-------------------------------9--6--------------------------
      Kained But Able...
 

  bridge
E-------------------------------------------------------------------
B-------------------------------------------------------------------
G-------------------------------------------------------------------
D-----10--------4-3-------------------------------------------------
A-----10--------4-3---x2---------4---4---4-7------------------------
E-----8---------2-1------------6---6---6----------------------------
 
 

  solo/bridge2
E-------------------------------I-----------------------------------
B-------------------------------I-----------------------------------
G-------------------------------I-------9---------------------------
D--5----13-10---3---13-11-------I-------9---------------------------
A--5----13-10---3---13-11---x2--I-------7---------------------------
E--3----11-8----5---10-9--------I-----------------------------------
  (chords only)                   Between bridge2 and verse2 play


  Outro1
E-------------------------------------------------------------------
B-------------------------------------------------------------------
G---------------------------10--------------------------------------
D-----3----11-8-------------xx--------------------------------------
A-----3----11-8---x2--------8---------------------------------------
E-----1----9--6-----------------------------------------------------
                     then      into a pick slide

  Outro2                        
E-------------------------------------------------------------------
B-------------------------------------------------------------------
G------------------12-----------------------------------------------
D----5-------------xx-----------------------------------------------
A----5-------------10-----------------------------------------------
E----3--------------------------------------------------------------
   Let Ring        

  End
E-------------------------------------------------------------------
B-------------------------------------------------------------------
G---9---------------------------------------------------------------
D---9-----8---------------------------------------------------------
A---7-----8---------------------------------------------------------
E---------6---------------------------------------------------------




Intro
Verse1
Verse2
Verse1
Verse2
Pre-Chorus
Chorus
Pre-Chorus
bridge x4
solo
bridge2
Verse2
verse
verse2
Pre-chorus
Chorus
Pre-chorus
Outro1
Outro2
Bridge2
End
            

comments powered by Disqus
↑ Back to top | Capdown Tabs for Kained But Able. Lyrics for acoustic guitar and electric guitar. Tablatures and chords are parodies/interpretations of the original songs. You may use it for private study, scholarship, research or language learning purposes only