» » »

Dub No Bass tabs (ver.2)

Artists:  A B C D E F G H I J K L M N O P Q R S T U V W X Y Z # 

Dub No Bass tabs (ver.2)

Capdown
Rating:
5/5 (1 vote)

Hard to play? Try these video lessons and learn fast.
                "(1)
Capdown - Dub No 1
sfc


play this all the way through
G-------------------------------|---------------------|
D-------------------------------|-------------6---6---|
A----------------------------4~-|-4-4-4-4~--4---4---3-|
E-1-1--1-1--1-1--1-1--1-1--4----|---------------------|


with some variations

G-------------------------------|--------------------|
D-------------------------------|--------------------|
A----------------------------4~-|-4-4--3~--3-4-3-4-3-|
E-1-1--1-1--1-1--1-1--1-1--4----|--------------------|

or

G-------------------------------|--------------------|
D-------------------------------|--------------------|
A----------------------------4~-|-4-4--3~--3-6-3-4-3-|
E-1-1--1-1--1-1--1-1--1-1--4----|--------------------|

simple as.
"            
Hard to play? Try these video lessons and learn fast. | Correct




comments powered by Disqus
↑ Back to top | Tablatures and chords are parodies/interpretations of the original songs. You may use it for private study, scholarship, research or language learning purposes only