» » »

Capdown, Bitches And Nike Shoes Bass tabs (ver.2)

Artists:  A B C D E F G H I J K L M N O P Q R S T U V W X Y Z # 

Bitches And Nike Shoes Bass tabs (ver.2)

Capdown Tabs
Rating:
0/5 (0 votes)
Bitches And Nike Shoes lessons Tabs too difficult? Try these video lessons and learn fast
                -------------------------------------------------------------------------------
	              b**ches And Nike Shoes - Capdown
-------------------------------------------------------------------------------


Tuning: Standard; EADG

Main Riff

G|---------------------------------------|
D|---------------------------------------|
A|-8-8---101110-8-----8-8---101110-8-----|
E|----------------8------------------8---|

###NOTE: On the first riff you may think, on the 1st repetion, it ends with 7 on the A
but, if you listen carefully, you will find that's just the guitar fooling you. The bass
fact just repeats this tab. Do not play the 7 on A string if you want it to be exact. 
electric plays that note. Not the bass!!

G|-------------------------------------------------|
D|-------------------------------------------------|
A|-8-8------11-11------10-10------9-9------8-8-----|
E|-------7/8--------7/8--------7/8------7/8--------|


It's fairly easy. I took me a matter of minutes to get used to and I've only recently
up the bass and have no previous knowledge of other instruments.

Good luck.
Tom
            
Submit corrections

comments powered by Disqus
↑ Back to top | Capdown Bass for Bitches And Nike Shoes. Lyrics for acoustic guitar and electric guitar. Tablatures and chords are parodies/interpretations of the original songs. You may use it for private study, scholarship, research or language learning purposes only