» » »

Cut You In Tabs (ver.1)

Artists:  A B C D E F G H I J K L M N O P Q R S T U V W X Y Z # 

Cut You In Tabs (ver.1)

Cantrell Jerry
Rating:
0/5 (0 votes)

Hard to play? Try these video lessons and learn fast.
                Track 2 From his solo Album "Boggy Depot"



^-Bend and release (hold on to fret played before it)
/-slide
*-hammer

intro, played through intire song

E-1---1---0---1---1---1---2---2---2---2|-1---1---0---1---1---1---2---2---2---2|
B-1---1---0---1---1---1---2---2---2---2|-1---1---0---1---1---1---2---2---2---2|
D-3---3---2---3---3---3---4---4---4---4|-3---3---2---3---3---3---4---4---4---4|
A-3---3---2---3---3---3---4---4---4---4|-3---3---2---3---3---3---4---4---4---4|
e-1---1---0---1---1---1---2---2---2---2|-1---1---0---1---1---1---2---2---2---2|

     "I like to sit, do nothing at home.."

E-1---1---0---1---1---1---2---2---2---2|-1---1---0---1---1---1---2---2---2---2|
B-1---1---0---1---1---1---2---2---2---2|-1---1---0---1---1---1---2---2---2---2|
D-3---3---2---3---3---3---4---4---4---4|-3---3---2---3---3---3---4---4---4---4|
A-3---3---2---3---3---3---4---4---4---4|-3---3---2---3---3---3---4---4---4---4|
e-1---1---0---1---1---1---2---2---2---2|-1---1---0---1---1---1---2---2---2---2|

     "....I'm outta funds. I Cut You In"
distortion
E-1---1---0---1---1---1---2---2---2---2|-1---1---0---1---1---1---2---2---2---2|
B-1---1---0---1---1---1---2---2---2---2|-1---1---0---1---1---1---2---2---2---2|
D-3---3---2---3---3---3---4---4---4---4|-3---3---2---3---3---3---4---4---4---4|
A-3---3---2---3---3---3---4---4---4---4|-3---3---2---3---3---3---4---4---4---4|
e-1---1---0---1---1---1---2---2---2---2|-1---1---0---1---1---1---2---2---2---2|


solo
E----------4-----------4-----6^-------|----------4-----------4-----6^-------|
B----6--------6-----4-----4-------4--6|----6--------6-----4-----4-------4--6|
G-5-----5--------5--------------------|-5-----5--------5--------------------|
D-------------------------------------|-------------------------------------|
A-------------------------------------|-------------------------------------|
e-------------------------------------|-------------------------------------|


E-------------------------------------|------------------------4--6---------|
B-4--6*-----4-------------------------|-------------------------------------|
G--------5-----5--4--1--3^---1--------|------------------1-3^---------------|
D-------------------------------------|-1--3-------1--3---------------------|
A-------------------------------------|-------1/3---------------------------|
e-------------------------------------|-------------------------------------|

Words and Music by Jerry Cantrell


I like to sit
Do nothing at home
I disappear turn off the phone
I lose myself
Hide from the sun
I make a trip, when I'm out of fun

I cut you in, come on let's go for a fall
I cut you in, and you ain't leavin' at all
I cut you in, don't let it go to your head
I cut you in, part time friend

I call you up
Whenever I'm stoned
We chew the skin, choke on the bones
You wonder when
I'll go away
If I could deal with it, I would have stayed

I cut you in, come on let's go for a fall
I cut you in, and you ain't leavin' at all
I cut you in, don't let it go to your head
I cut you in, part time friend

I Like to sit
Do nothing at home
I disappear turn off the phone
I lose myself
Hide from the sun
I make a trip, when I'm out of fun

I cut you in, come on let's go for a fall
I cut you in, and you ain't leavin' at all
I cut you in, don't let it go to your head
I cut you in, part time friend

I cut you in
I cut you in
I cut you in, don't let it go to your head
I cut you in, part time friend


well, thats about it. pretty simple song, but it kicks ass and sounds bad
as hell.
            
Hard to play? Try these video lessons and learn fast. | Correct




comments powered by Disqus
↑ Back to top | Tablatures and chords are parodies/interpretations of the original songs. You may use it for private study, scholarship, research or language learning purposes only