» » »

Cannibal Corpse, Unite The Dead Tabs (ver.1)

Artists:  A B C D E F G H I J K L M N O P Q R S T U V W X Y Z # 

Unite The Dead Tabs (ver.1)

Cannibal Corpse Tabs
Rating:
0/5 (0 votes)
Unite The Dead lessons Tabs too difficult? Try these video lessons and learn fast
                Riff 1a
|-------------------------------|
|-------------------------------|
|-------------------------------|
|-------------------------------|
|-6-7-8-6-8-9-2--3--4--2--4--5--|
|-4-5-6-4-6-7-0--1--2--0--2--3--|


Riff 1b
|--------------------------|
|--------------------------|
|--------------------------|
|--------------------------|
|-6-7-8-6-8-9-2-3-4-2-4-5--|
|-4-5-6-4-6-7-0-1-2-0-2-3--|


Riff 2a
|--------------------------|
|--------------------------|
|--------------------------|
|--------------------------|
|-----7-----6-----5---1----|
|-0-0---0-0---0-0---0---3--|
pm. .   . .   . .   .


Riff 2b
|----------------------|
|----------------------|
|----------------------|
|----------------------|
|-----7-----6-2--3--4--|
|-0-0---0-0---0--1--2--|
pm. .   . .   .


Riff 2c
|-------------------------------|
|-------------------------------|
|-------------------------------|
|-------------------------------|
|-----7-----6-2--3--4--2--4--5--|
|-0-0---0-0---0--1--2--0--2--3--|
pm. .   . .   .        .


Chorus a (***ing the zombie whore...)
|----------------------|
|----------------------|
|----------------------|
|----------------------|
|-6-7-8-6-8-9-2--3--4--|
|-4-5-6-4-6-7-0--1--2--|
pm            .


Chorus b
|-------------------------------|
|-------------------------------|
|-------------------------------|
|-------------------------------|
|-6-7-8-6-8-9-2--3--4--2--4--5--|
|-4-5-6-4-6-7-0--1--2--0--2--3--|
pm            .        .


Riff 3a (Gifted with speech...)
|---------------------------|
|---------------------------|
|---------------------------|
|--------------ah-----------|
|--------------2~--2--3--4--|
|-6"---------------0--1--2--|
pm.                .


Riff 3b
|------------------------------------|
|------------------------------------|
|------------------------------------|
|--------------ah--------------------|
|--------------2~--2--3--4--2--4--5--|
|-6"---------------0--1--2--0--2--3--|
pm.                .        .


Fill 1
|-------------------------------------|
|-------------------------------------|
|-------------------------------------|
|-------------------------------------|
|-2--3--4--2--4--5--2--5--7--2--7--8--|
|-0--1--2--0--2--3--0--3--5--0--5--6--|


Riff 4
|--------------------------|
|--------------------------|
|--------------------------|
|--------------------------|
|-2/3/4---4/5---5/7---7/8--|
|-0/1/2-0/2/3-0/3/5-0/5/6--|


Riff 5 (unsure on this one)
|--------------------|
|--------------------|
|--------------------|
|--------------------|
|-------------4433---|
|-1--44331-1------1--|
pm.        .
            

comments powered by Disqus
↑ Back to top | Cannibal Corpse Tabs for Unite The Dead. Lyrics for acoustic guitar and electric guitar. Tablatures and chords are parodies/interpretations of the original songs. You may use it for private study, scholarship, research or language learning purposes only