» » »

Cannibal Corpse, Pounded Into Dust Tabs (ver.1)

Artists:  A B C D E F G H I J K L M N O P Q R S T U V W X Y Z # 

Pounded Into Dust Tabs (ver.1)

Cannibal Corpse Tabs
 Rating:
4/5 (4 votes)
Pounded Into Dust lessons Tabs too difficult? Try these video lessons and learn fast
                Pounded into Dust by Cannibal Corpse
Originally played on a 7 string tuned to Bb

Tune to Eb
Intro Riff 
|------------------|----------------------| 
|------------------|----------------------| 
|------------------|--------------/10-/7--| 
|------------------|----------------------| 
|------------------|--------------/8--/5--| 
|--88888---88888---|--88888---------------| 

Intro Riff cont. 
|-------------------------|-------------------------------------
|-------------------------|-------------------------------------
|-------------/10-/7--/5--|------------------------------/10-/7-
|------------------------—|-------------------------------------
|--------------/8-/5--/3--|--4-----2-----5---------------/8--/5-
|--88888-----------------—|----222---222-----7-7-7-7-7-7-------—


Verse Riff 
|---------------------------------------------------- 
|---------------------------------------------------- 
|--------------------------------------7-----7------- 
|--------------------------6-----6-----7-----7------- 
|----555---555---555---552-6-----6-----5-----5------- 
|--6-----4-----7-----7-----4-777-4-777---777---777--- 

Chorus Riff
|-----------------------------------| 
|-----------------------------------| 
|-----------------------------------| 
|-----------------------------------| 
|----2-5-2-3-2-5-2---2---2---2---2--| 
|--1---------------1---4---4---4----| 

[end 1] 
|---------------------------------- 
|---------------------------------- 
|--------7------------------------- 
|--3-----7-----6\5-5\4-4\3--------- 
|--3-222-5-222--------------------—
|--1-----------4\3-3\2-2\1-111111-- 

[end 2] 
|---------------------------------- 
|---------------------------------- 
|---------------------------------- 
|---------------------------------- 
|--5-2---2---2-------------------- 
|------1---0---0-7-77777---77777--- 

Outro Riff 
|---------------------------------- 
|---------------------------------- 
|---------------------------------- 
|---------------------------------- 
|--------555555------888888----5--- 
|--111111------444444------7-1-----
            
Submit corrections

comments powered by Disqus
↑ Back to top | Cannibal Corpse Tabs for Pounded Into Dust. Lyrics for acoustic guitar and electric guitar. Tablatures and chords are parodies/interpretations of the original songs. You may use it for private study, scholarship, research or language learning purposes only