» » »

Cannibal Corpse, Pit Of Zombies Bass tabs (ver.1)

Artists:  A B C D E F G H I J K L M N O P Q R S T U V W X Y Z # 

Pit Of Zombies Bass tabs (ver.1)

Cannibal Corpse Tabs
 Rating:
4/5 (4 votes)
Pit Of Zombies lessons Tabs too difficult? Try these video lessons and learn fast
1
                Album:Gors Obsessed 2002
Bassist:Alex Webster
Tunning:Bb,Eb,Ab,Db

Intro

C#:-------------------------------------|
G#:-------------------------------------|
D#:-5-5------------------2-----2--------|
A#:-----44444444111111111--1111--1111---|

C#:--------------------------------------|
G#:--------------------------------------|
D#:-5-5----------------------------------|
A#:-----44444444111111111---4-11114-1111-|

C#:-----------------------------------------|
G#:-----------------------------------------|
D#:-5-5------------------8-----7-----6------|
A#:-----44444444777777777--7777--6666--5555-|

C#:----------------------------------------------------------|
G#:----------------------------------------------------------|
D#:-11---10-----9-----8-----7-----6------11---10-----9-------|
A#:----10---9999--8888--7777--6666--5555----10---9999--8888--|

Verse1

C#:-----------------------------------------------------------------------------|
G#:-----------------------------------------------------------------------------|
D#:-----------------------------------------------------------------------------|
A#:--6h7--3---0-4-3-0-4-3-0-3/6-6\3-3/6-6h7--3---0-4-3-0-4-3-0-3/6-6/9---9\6----|

C#:-----------------------------------------------------------------------|
G#:-----------------------------------------------------------------------|
D#:-----------------------------------------------------------------------|
A#:--6h7--3---0-4-3-0-4-3-0-3/6-6\3-3/6-6h7--3---0-4-3-0-4-3-0-3/6-6/9----|

C#:----------------------------------------------------------------------------|
G#:----------------------------------------------------------------------------|
D#:----------------------------------------------------------------------------|
A#:---9\6-6--9\6-6-6h7-3-0-3-3-0-4-3-0--9\6-6--9\6-6-6h7-0--3--7--6--10--10----|

C#:--------------------------------------------------------------------|
G#:--------------------------------------------------------------------|
D#:--------------------------------------------------------------------|
A#:---9\6-6--9\6-6-6h7-3-0-3-3-0-4-3-0--9\6-6--9\6-6-6h7-0--3--7--6----|

Chorus 1

C#:-------------------------------------|
G#:-------------------------------------|
D#:-5-5------------------2-----2--------|
A#:-----44444444111111111--1111--1111---|

C#:--------------------------------------|
G#:--------------------------------------|
D#:-5-5----------------------------------|
A#:-----44444444111111111---4-11114-1111-|

C#:-----------------------------------------|
G#:-----------------------------------------|
D#:-5-5------------------8-----7-----6------|
A#:-----44444444777777777--7777--6666--5555-|

C#:----------------------------------------------------------|
G#:----------------------------------------------------------|
D#:-11---10-----9-----8-----7-----6------11---10-----9-------|
A#:----10---9999--8888--7777--6666--5555----10---9999--8888--|

Verse 2

C#:-----------------------------------------------------------------------------|
G#:-----------------------------------------------------------------------------|
D#:-----------------------------------------------------------------------------|
A#:--6h7--3---0-4-3-0-4-3-0-3/6-6\3-3/6-6h7--3---0-4-3-0-4-3-0-3/6-6/9---9\6----|

C#:-----------------------------------------------------------------------|
G#:-----------------------------------------------------------------------|
D#:-----------------------------------------------------------------------|
A#:--6h7--3---0-4-3-0-4-3-0-3/6-6\3-3/6-6h7--3---0-4-3-0-4-3-0-3/6-6/9----|

C#:----------------------------------------------------------------------------|
G#:----------------------------------------------------------------------------|
D#:----------------------------------------------------------------------------|
A#:---9\6-6--9\6-6-6h7-3-0-3-3-0-4-3-0--9\6-6--9\6-6-6h7-0--3--7--6--10--10----|

C#:--------------------------------------------------------------------|
G#:--------------------------------------------------------------------|
D#:--------------------------------------------------------------------|
A#:---9\6-6--9\6-6-6h7-3-0-3-3-0-4-3-0--9\6-6--9\6-6-6h7-0--3--7--6----|

Chorus 2

C#:-------------------------------------|
G#:-------------------------------------|
D#:-5-5------------------2-----2--------|
A#:-----44444444111111111--1111--1111---|

C#:--------------------------------------|
G#:--------------------------------------|
D#:-5-5----------------------------------|
A#:-----44444444111111111---4-11114-1111-|

C#:-----------------------------------------|
G#:-----------------------------------------|
D#:-5-5------------------8-----7-----6------|
A#:-----44444444777777777--7777--6666--5555-|

C#:----------------------------------------------------------|
G#:----------------------------------------------------------|
D#:-11---10-----9-----8-----7-----6------11---10-----9-------|
A#:----10---9999--8888--7777--6666--5555----10---9999--8888--|

C#:--------------|
G#:--------------|
D#:--8---7---6---|
A#:----7---6---5-|

C#:-------------------------------------|
G#:-------------------------------------|
D#:-5-5------------------2-----2--------|
A#:-----44444444111111111--1111--1111---|

C#:--------------------------------------|
G#:--------------------------------------|
D#:-5-5----------------------------------|
A#:-----44444444111111111---4-11114-1111-|

C#:-----------------------------------------|
G#:-----------------------------------------|
D#:-5-5------------------8-----7-----6------|
A#:-----44444444777777777--7777--6666--5555-|

C#:----------------------------------------------------------| x4
G#:----------------------------------------------------------|
D#:-11---10-----9-----8-----7-----6------11---10-----9-------|
A#:----10---9999--8888--7777--6666--5555----10---9999--8888--|

Re-Entry

C#:-----------R-----------|
G#:-----------E-----------|
D#:-----------S-----------|
A#:--6h7--3---T----6h7----|

Verse 3

C#:---------------------------------------------------|
G#:---------------------------------------------------|
D#:---------------------------------------------------|
A#:--6h7--3---0-4-3-0-6-3-0-4-3-0-6-3-0-4-3-0-6-3-0---|

C#:--------------------------------------------------|
G#:--------------------------------------------------|
D#:--------------------------------------------------|
A#:--6h7--3---0-4-3-0-6-3-0-/9----8h9--7h8--6h7------|

C#:--------------------------------------------------|
G#:--------------------------------------------------|
D#:--------------------------------------------------|
A#:--6h7--3---0-4-3-0-6-3-0-6\3-3-6\3-3-6\3-3-6\3-3--|

C#:---------------------------------------------------|
G#:---------------------------------------------------|
D#:--------------------------------------888888777777-|
A#:--6h7--3---0-4-3-0-6-3-0-/9----8h9-----------------|

C#:---------------------------------------------------|
G#:---------------------------------------------------|
D#:---------------------------------------------------|
A#:--6h7--3---0-4-3-0-6-3-0-4-3-0-6-3-0-4-3-0-6-3-0---|

C#:--------------------------------------------------|
G#:--------------------------------------------------|
D#:--------------------------------------------------|
A#:--6h7--3---0-4-3-0-6-3-0-/9----8h9--7h8--6h7------|

C#:--------------------------------------------------|
G#:--------------------------------------------------|
D#:--------------------------------------------------|
A#:--6h7--3---0-4-3-0-6-3-0-6\3-3-3\2-2-2/3-3-3/6-6--|

C#:---------------------------------------------------|
G#:---------------------------------------------------|
D#:--------------------------------------888888777777-|
A#:--6h7--3---0-4-3-0-6-3-0-/9----8h9-----------------|

Break 1

C#:--------------------------| x4
G#:--------------------------|
D#:--------------------------|
A#:--6h7--9---0-66330-6\3-3--|

Verse 4

C#:---------------------------------------------------|
G#:---------------------------------------------------|
D#:---------------------------------------------------|
A#:--6h7--3---0-4-3-0-6-3-0-4-3-0-6-3-0-4-3-0-6-3-0---|

C#:--------------------------------------------------|
G#:--------------------------------------------------|
D#:--------------------------------------------------|
A#:--6h7--3---0-4-3-0-6-3-0-/9----8h9--7h8--6h7------|

C#:--------------------------------------------------|
G#:--------------------------------------------------|
D#:--------------------------------------------------|
A#:--6h7--3---0-4-3-0-6-3-0-6\3-3-6\3-3-6\3-3-6\3-3--|

C#:---------------------------------------------------|
G#:---------------------------------------------------|
D#:--------------------------------------888888777777-|
A#:--6h7--3---0-4-3-0-6-3-0-/9----8h9-----------------|

Break 1 x4

Break 2
C#:-------------------------| x4
G#:-------------------------|
D#:-------------------------|
A#:--6h7--9---0-66330-/10---|

Solo

C#:-----------------------------------------------------------------------------|
G#:-----------------------------------------------------------------------------|
D#:-----------------------------------------------------------------------------|
A#:--6h7--3---0-4-3-0-4-3-0-3/6-6\3-3/6-6h7--3---0-4-3-0-4-3-0-3/6-6/9---9\6----|

C#:-----------------------------------------------------------------------|
G#:-----------------------------------------------------------------------|
D#:-----------------------------------------------------------------------|
A#:--6h7--3---0-4-3-0-4-3-0-3/6-6\3-3/6-6h7--3---0-4-3-0-4-3-0-3/6-6/9----|

C#:----------------------------------------------------------------------------|
G#:----------------------------------------------------------------------------|
D#:----------------------------------------------------------------------------|
A#:---9\6-6--9\6-6-6h7-3-0-3-3-0-4-3-0--9\6-6--9\6-6-6h7-0--3--7--6--10--10----|

C#:--------------------------------------------------------------------|
G#:--------------------------------------------------------------------|
D#:--------------------------------------------------------------------|
A#:---9\6-6--9\6-6-6h7-3-0-3-3-0-4-3-0--9\6-6--9\6-6-6h7-0--3--7--6----|

Chorus 2 x1


C#:-----------|
G#:-----------|
D#:-----------|
A#:--6h7---3--|

End
            
Submit corrections

comments powered by Disqus
↑ Back to top | Cannibal Corpse Bass for Pit Of Zombies. Lyrics for acoustic guitar and electric guitar. 1 Tablatures and chords are parodies/interpretations of the original songs. You may use it for private study, scholarship, research or language learning purposes only