» » »

Necropediphile Bass tabs (ver.1)

Artists:  A B C D E F G H I J K L M N O P Q R S T U V W X Y Z # 

Necropediphile Bass tabs (ver.1)

Cannibal Corpse
Rating:
0/5 (0 votes)

Hard to play? Try these video lessons and learn fast.
                tune down

|---------------------------------|---------------------|----------------------------
|---2---------2------2------------|----3-------3--------|-------------2--------------
|---------------------------------|------4------4-------|----------------------------
|------210------210----210-3201---|--22-----22----3201--|-----222-111--222-111-0-----


|-------------------------------|--------------------------------|-------------------
|-------------2-----------------|--------------------------------|-----3--------3----
|-------------------------------|-----44--------44----5----------|------------------5
|--222000222----222000222-1-----|--22---22-1--22--22-------------|--2----54---2--4-2-



|-------------------------|---------------------------|----------------------|
|-------------------------|------------2--------------|------2-------2-------|
|----5----------5------5--|---------------------------|----------------------|
|------4-3-5-2----4-3-4---|------222000--222000222-1--|---21---53--21-54-----|
            
Hard to play? Try these video lessons and learn fast. | Correct




comments powered by Disqus
↑ Back to top | Tablatures and chords are parodies/interpretations of the original songs. You may use it for private study, scholarship, research or language learning purposes only