>
 >
Demons Night

Demons Night Guitar Tabs

Cannibal Corpse - Demons Night chords, tabs, tablatures, lyrics

Guitar lessons | Add/correct | Request | Top 50 tabs Artists:  A B C D E F G H I J K L M N O P Q R S T U V W X Y Z 0-9

Demons Night Guitar Tabs – Cannibal Corpse

CD, Sheet music, Poster

Do you like Demons Night? Share with your friends now
Tabs

Tuning: A# D# G# C# F# A# D#


Riff1 (Fade In)

Both
|-----------------------------------------------------------------------|
|-----------------------------------------------------------------------|
|-----------------------------------------------------------------------|
|---------------8/7-------------------8/7-------------------------------|
|-5-5-5-5-5-5-5-6/5-8-7-5-5-5-5-5-5-5-6/5-8-7-5-5-5-5-8--5-6-3--3-3-3-3-|
|-3-3-3-3-3-3-3-----6-5-3-3-3-3-3-3-3-----6-5-3-3-3-3-6--3-4-1--1-1-1-1-|
  . . . . . . .     . . . . . . . . .     . . . . . .      .    . . . .

Riff2

Both            Passage
---------------|---------------------------------------|
---------------|---------------------------------------|
---------------|---------------------------------------|
---------------|---------------------------------------|
-2-2-2-2-2-2-2-|-7-7-5-4-2-2-2-2-2-2-2-2-2-2-2-7-7-5-4-|
-0-0-0-0-0-0-0-|-5-5-3-2-0-0-0-0-0-0-0-0-0-0-0-5-5-3-2-|
 . . . . . . .       . . . . . . . . . . . . .     . .


Pat O'Brien       Jack Owen
-----------------|-------------------|
-----------------|-7-----------------|
-----------------|---6------12-13-12-|
-----------5-----|-----7-10----------|
---2-4---2---3---|-------------11-10-|
-1-----3-------2-|-------------------|
 . . . . . . . .

Riff3

Both
|-------------------------------------------------------------------|
|-------------------------------------------------------------------|
|-------------------------------------------------------------------|
|-2--4--7------4-----4-----4------4--4-2------4-----4-----4-----9~~-|
|-0--2--5-------------------------2--2-0------------------------7~~-|
|----------222---222---222---222----------222---222---222---222-----|
           ...   ...   ...   ...          ...   ...   ...   ...

Repeat Riff2
Repeat Riff4
Riff4
Pat O'Brien
|---------------------------------------------------------------|
|---------------------------------------------------------------|
|---------------------------------------------------------------|
|-7--4------------------------------------4---------------------|
|-5--2--2-2-2-2-2-2-2-2-2-2-2-2-2-2-2-2-2-2-------4---4---4---4-|
|-------------------------------------------3-2-0-2-0-2-0-2-0-2-|
        . . . . . . . . . . . . . . . . .   . . .   .   .   .
Jack Owen
|----------------------------------------------------------------|
|----------------------------------------------------------------|
|----------------------------------------------------------------|
|-7--4------------------------------------4-----------ph--4---ph-|
|-5--2--2-2-2-2-2-2-2-2-2-2-2-2-2-2-2-2-2-2-------4---2~--4---2~-|
|-------------------------------------------3-2-0-2-0---0-2-0----|
        . . . . . . . . . . . . . . . . .   . . .   .   .   .

Both                                                   Last Time
------------------------------------------------------|-------------|
------------------------------------------------------|-------------|
------------------------------------------------------|-------------|
-7--4------------------------------------9-9-9-11~~~~-|-7-7-7-------|
-5--2--2-2-2-2-2-2-2-2-2-2-2-2-2-2-2-2-2-7-7-7--9~~~~-|-5-5-5-7~~~~-|
------------------------------------------------------|-------5~~~~-|
       . . . . . . . . . . . . . . . . .

Repeat Riff2 Passage

Both
|--------------------------------------------------------------------|
|--------------------------------------------------------------------|
|--------------------------------------------------------------------|
|-2--4--7------4-----4-----4------4--4-2------4-----4-----4-----9~~--|
|-0--2--5-------------------------2--2-0------------------------7~~--|
|----------222---222---222---222----------222---222---222---222------|
           ...   ...   ...   ...          ...   ...   ...   ...

-----------------------------------------------|
-----------------------------------------------|
-13~~------------------------------------------|
-13~~-------------------6-----6-----6-----11~~-|
-11~~---11---11--9-------------------------9~~-|
------0--9-0--9--7--444---444---444---444------|
      .    .        ...   ...   ...   ...

Repeat   Riff4
Repeat   Riff2 Passage (Owen Solo)
Repeat   Riff3 (Solo)
Repeat   Riff4
Repeat   Riff2 Passage

Ending...

Both
|----------------------------------14-15-|
|-----------------8-------13----12-------|
|-----------6---6------11----11----------|
|-----5---5---5-----10-------------------|
|---3---4--------------------------------|
|-0--------------------------------------|
  . . . . . . . . . . . . . . . .

End.
Tab Legend
. - palm mute
\ - slide down to
/ - slide up to
h - hammer on
t - tap
ph - pinched harmonic
^ - Hold bend
r release bend
~ - vibrato bend
() - ghost note, sustained note
" - tremolo note
b - Bend
f - full bend
h - half bend
q - quarter bend
^ - Hold bend
r - release bend





Comments


Popular Cannibal Corpse tabs & chords
Covered With Sorses Bass Tabs
Hammer Smashed Face Bass Tabs
I Cum Blood Bass Tabs
Staring Through The Eyes Of The Dead Bass Tabs
The Bleeding Bass Tabs
A Skull Full Of Maggots 1 Tabs
An Experiment In Homcide Tabs
Ecstasy In Decay Tabs
Raped By The Beast 1 Tabs
Sentenced To Burn 1 Tabs


Song lyrics



↑ Back to top | Tablatures and chords are parodies/interpretations of the original songs. You may use it for private study, scholarship, research or language learning purposes only
© 2014 AZChords.com Contact us | Privacy policy | DMCA | Add/correct tabs | Request tabs | Top 50 tabs