>
 >
Brain Removal Device

Brain Removal Device Guitar Tabs

Cannibal Corpse - Brain Removal Device chords, tabs, tablatures, lyrics

Guitar lessons | Add/correct | Request | Top 50 tabs Artists:  A B C D E F G H I J K L M N O P Q R S T U V W X Y Z 0-9

Brain Removal Device Guitar Tabs – Cannibal Corpse

CD, Sheet music, Poster

Do you like Brain Removal Device? Share with your friends now
Tabs
and: Cannibal Corpse

Copyright (c) Metal Blade 2006
Version 1.0  31.03.2006


unchallengedhate.de / japanische-kampfhoerspiele.de

. - palm mute / - slide up to
\ - slide down to ~ - vibrato
h - hammer on b - Bend
p - pull off Suffixes for bend
t - tap f - full bend h - half bend
ph - pinched harmonic q - quarter bend t - tap bend
* - see comment ^ - Hold bend r release bend
x - Stuccatto ~ - vibrato bend
, - slight palm mute () - ghost note, sustained note
" - tremolo note <> - Trill

Tuning 6 half steps down: Bb-Eb-Ab-Db-F-Bb

guitar one = left channel
guitar two = right channel

RIFF 1 (0:00) both gtr.
|---------------------------------------------------------||
|---------------------------------------------------------||
|---------------------------------------------------------||
|-7-4-7-----------------------5-----------------8---------||
|-5-2-5---------2---2---5---4-----5---5---8---7-----8---0-||
|-------3-1-0-1---4---4---3-----4---7---7---6-----7---7---||
  . . . . . . .   .   .   .     .   .   .   .     .   .

RIFF 1 last two times only guitar one
|------------------------------------------------------------------||
|------------------------------------------------------------------||
|------------------------------------------------------------------||
|-7-4-7-----------------------8---------------------11-------------||
|-5-2-5---------5---5---8---7-----8----8----11---10-------11-------||
|-------3-1-0-4---7---7---6-----7---10---10----9-------10----10-12-||
  . . . . . . .   .   .   .     .   .    .     .       .     .

RIFF 2 (0:16) guitar one
|-------------------------------------||
|-------------------------------------||
|-------------------------------------||
|-7-4-7-------8-----8-----8-----8-----||
|-5-2-5-------7-----7-----7-----7-----||
|-------3-1-0-0-----0-----0-----0-----||
  . . . . . .

RIFF 2 (0:16) guitar two
|-------------------------------------||
|-------------------------------------||
|-------------------------------------||
|-7-4-7-------------------6-5---4-5---||
|-5-2-5-------7-8---7-6-------------4-||
|-------3-1-0-----7-----8-----8-------||
  . . . . . .     .     .     .     

RIFF 3 (0:19) both gtr.
|-------------------------------------------------
|-------------------------------------------------
|-------------------------------------------------
|-88888-------------------88888-------------------
|-------------4---3---6---------------4---3---6---
|-66666-0-2-0-2-0-1-0-4-0-66666-0-2-0-2-0-1-0-4-0-
        . . .   .   .   .       . . .   .   .   .

 -------------------------------------------------||
 -------------------------------------------------||
 -------------------------------------------------||
 -88888-------------------88888-------------------||
 -------------4---3---6---------------4---3-------||
 -66666-0-2-0-2-0-1-0-4-0-66666-0-2-0-2-0-1-0-4---||
        . . .   .   .   .       . . .   .   .   

RIFF 4 (0:26) both gtr.
u = upstroke / d = downstroke

  d u uu
|----------------------------||
|-1111-----------------------||
|-----9----------------------||
|------8\--------------------||
|----------------3---4---3---||
|----------0000001-0-2-0-1p0-||
           ......  .   .

RIFF 3b (0:34) both gtr.
|-------------------------------------------------
|-------------------------------------------------
|-------------------------------------------------
|-88888-------------------88888-------------------
|-------------4---3---6---------------4---3---6---
|-66666-0-2-0-2-0-1-0-4-0-66666-0-2-0-2-0-1-0-4-0-
        . . .   .   .   .       . . .   .   .   .

 -------------------------------------------------||
 -------------------------------------------------||
 -------------------------------------------------||
 -88888-------------------88888-------------------||
 -------------4---3---6---------------4---3-------||
 -66666-0-2-0-2-0-1-0-4-0-66666-0-2-0-2p0-1p0-4---||
        . . .   .   .   .       . . .     

RIFF 5 (0:41) both gtr.
|---------------------------------------------------------------------
|---------------------------------------------------------------------
|---------------------------------------------------------------------
|---------------------------------------------------------------------
|------------------------------------10-------------------------------
|-8p7-0-8p7-0-4h5-4-7-5-8-6-9-7h10p7----7-7-8p7-0-4h5-4-7-5-8-6-9-3p0-
      .     .     . . . . . .           . .     .     . . . . . .

 -------------------------------------------------------------------
 -------------------------------------------------------------------
 -------------------------------------------------------------------
 -------------------------------------------------------------------
 -555555-------10----------------------------------10---------------
 --------5-7-4----7-7-8p7-0-4h5-4-7-5-8-6-9-7h10p7----7-7-8p7-0-4h5-
         . . .    . .     .     . . . . . .           . .     .

 ------------------------------------------------------------
 ------------------------------------------------------------
 ------------------------------------------------------------
 ------------------------------------------------------------
 -----------------555555--------------------10---------------
 -4-7-5-8-6-9-3p0--------5-7-4-666666-5-7-4----7-7-8p7-0-4h5-
  . . . . . .            . . .        . . .    . .     .

 ------------------------------------------------------------------
 ------------------------------------------------------------------
 ------------------------------------------------------------------
 ------------------------------------------------------------------
 --------------------10-------------------------------555555-------
 -4-7-5-8-6-9-7h10p7----7-7-8p7-0-4h5-4-7-5-8-6-9-3p0--------5-7-4-
  . . . . . .           . .     .     . . . . . .            . . .

 ----------------------------------------------------------------------
 ----------------------------------------------------------------------
 ----------------------------------------------------------------------
 ----------------------------------------------------------------------
 ---------------------------10----------------------------------10-----
 -666666-5-7-4-666666-5-7-4----7-7-8p7-0-4h5-4-7-5-8-6-9-7h10p7----7-7-
         . . .        . . .    . .     .     . . . . . .           . .

 ----------------------------------------
 ----------------------------------------
 ----------------------------------------
 ----------------------------------------
 ---------------------------555555-------
 -8p7-0-4h5-4-7-5-8-6-9-3p0--------5-7-4-
      .     . . . . . .            . . .

 ----------------------------------------------------||
 ----------------------------------------------------||
 ----------------------------------------------------||
 ----------------------------------------7-4-7-------||
 ----------------------------------------5-2-5-------||
 -666666-5-7-4-666666-5-7-4-666666-3-1-0-------3-1-0-||
         . . .        . . .        . . . . . . . . .

again RIFF 2 (1:04)
again RIFF 3 (1:06)
again RIFF 5 (1:14)

 ending RIFF 5 (1:33) (before jumping into RIFF 1 again)
 ----------------------------------------||
 ----------------------------------------||
 ----------------------------------------||
 ----------------------------------------||
 ----------------------------------------||
 -666666-5-7-4-666666-5-7-4-666666-3-1-0-||
         . . .        . . .        . . .

again RIFF 1 (1:36)

RIFF 2 (1:53) BOTH GTR.
|-------------------------------------||
|-------------------------------------||
|-------------------------------------||
|-7-4-7-------------------6-5---4-5---||
|-5-2-5-------7-8---7-6-------------4-||
|-------3-1-0-----7-----8-----8-------||
  . . . . . .     .     .     .     

RIFF 6 (1:56) both gtr.
|-------------------------------------------------------
|-------------------------------------------------------
|-------------------------------------------------------
|-----------------8--------------------------8----------
|---------------7-----8--------------------7-----8------
|-0-0-0-0-0-0-7-----7---7-10-0-0-0-0-0-0-7-----7---7-10-
    . . . . . . .   .   .      . . . . . . .   .   .

 ----------------------------------------------------||
 ----------------------------------------------------||
 ----------------------------------------------------||
 -----------------8--------------------7-----7-0-----||
 ---------------7-----8----------7---6-----4-----4-3-||
 -0-0-0-0-0-0-7-----7---7-10-9-6---5-----3-------2-1-||
    . . . . . . .   .   .    . .   . .   . .

SOLO I  (2:11) / Rhythm RIFF 6

SOLO II (2:27) / Rhythm RIFF 3b

again RIFF 5 (2:35)

 ending RIFF 5 brfore jumping into RIFF 5b
 ----------------------------------------------------||
 ----------------------------------------------------||
 ----------------------------------------------------||
 ----------------------------------------7-4-7-------||
 ----------------------------------------5-2-5-------||
 -666666-5-7-4-666666-5-7-4-666666-3-1-0-------3-1-0-||
         . . .        . . .        . . . . . . . . .

RIFF 5b (2:57) both gtr.
|------------------------------------------------------------------------
|------------------------------------------------------------------------
|------------------------------------------------------------------------
|------------------------------------------------------------------------
|-9----------------------------------10----------------------------------
|---7-7-8p7-0-4h5-4-7-5-8-6-9-7h10p7----7-7-8p7-0-4h5-4-7-5-8-6-9-7h10p7-
    . .     .     . . . . . .           . .     .     . . . . . .

 -------------------------------------------------------------------------
 -------------------------------------------------------------------------
 -------------------------------------------------------------------------
 -------------------------------------------------------------------------
 -10----------------------------------10----------------------------------
 ----7-7-8p7-0-4h5-4-7-5-8-6-9-7h10p7----7-7-8p7-0-4h5-4-7-5-8-6-9-7h10p7-
     . .     .     . . . . . .           . .     .     . . . . . .

 RIFF 7 (3:05) both gtr.
 -----------------------------------------------------------------------------
 -----------------------------------------------------------------------------
 -----------------------------------------------------------------------------
 -----------------------------------------------------------------------------
 -------2-5-3-6-4-7-5h8p5--------6-9-7-10-8-11-9h12p9-10-13-11-14-12-15-------
 -4h7p4-------------------7h10p7----------------------------------------15p12-
        . . . . . .              . . . .  . .         .  .  .  .  .  .

 RIFF 8 (3:08) both gtr.
 -------------------------------------------------------------------------
 -------------------------------------------------------------------------
 -------------------------------------------------------------------------
 ----15-14-------13----13-12-------11----11-10-------9----9-8-----7---7-6-
 -16-------15-14----14-------13-12----12-------11-10---10-----9-8---8-----
 -------------------------------------------------------------------------

 ---------------------------------------||
 ---------------------------------------||
 ---------------------------------------||
 ---------------------------------------||
 -------------------------------------2-||
 -88888-12-8-12\11-33333-7-3-7\6-000000-||
  .....    .       .....   .     .....





Comments


Popular Cannibal Corpse tabs & chords
Blowtorch Slaughter 2 Bass Tabs
The Bleeding Bass Tabs
Bent Backwards And Broken 1 Tabs
Beyond The Cemetery 1 Tabs
Blowtorch Slaughter 1 Tabs
Infinate Misery Tabs
Make Them Suffer 2 Tabs
Meat Hook Sodomy Tabs
Meat Hook Sodomy 1 Tabs
Necrosadistic Warning Tabs


Song lyrics



↑ Back to top | Tablatures and chords are parodies/interpretations of the original songs. You may use it for private study, scholarship, research or language learning purposes only
© 2014 AZChords.com Contact us | Privacy policy | DMCA | Add/correct tabs | Request tabs | Top 50 tabs