» » »

Candlemass, Bewitched Tabs (ver.3)

Artists:  A B C D E F G H I J K L M N O P Q R S T U V W X Y Z # 

Bewitched Tabs (ver.3)

Candlemass Tabs
Rating:
3/5 (4 votes)
Bewitched lessons Tabs too difficult? Try these video lessons and learn fast
                BEWITCHED awesome song by CANDLEMASS
this is my first tab so don't blame me if it sucks
and i know there's no solo. but as i said, this song is awesome! good luck, it's pretty 
i mean, i'm twelwe years old and can do it :D
b=bend

intro                              x4
--------------------------------------|
--------------------------------------|
--------------------------------------|
--------------------------------------|
5/-7-7---4--3--2----5/-7-7---8--7--10-|
3/-5-5---2--1--0----3/-5-5---6--5--8--|

                                 x2
------------------------------------|
------------------------------------|
------------------------------------|
------------------------------------|
5/--7---4--3--2----5/--7---8--7--10-|
3/--5---2--1--0----3/--5---6--5--8--|


i'm not 100% bout the verses, but the riff is pretty much the same as the intro, so play 
intro all over again and it will turn out nicely :D

verse1
Can't you see, the devil in me
just take a look in my eyes
I will play for you, this wicked melody
it's magic will reach for your soul
(the singing stops here and you play the first part of the intro twice)
It burns inside, no place to hide
this strange tune possesses your mind
It comes over you, and the nightmare is true
you'll enter the realm of the dark


chorus
--------------------------------------------|
--------------------------------------------|
--------------------------------------------|
--------------------------------------------|
--------------------------------------------|
7b-7b-6-5-4-3-2/---7--6--4---3---x--x--x--x-|


You are bewitched...
now, when he says YOU ARE BEWITCHED, play this in the same tact and rythm
---------------------|
---------------------|
---------------------|
---------------------|
---------------------|
6---7---8---7---6----|

and then
--------------|
--------------|
--------------|
--------------|
--------------|
7-6--5--4--3--|
and this again
--------------------------------------------|
--------------------------------------------|
--------------------------------------------|
--------------------------------------------|
--------------------------------------------|
7b-7b-6-5-4-3-2/---7--6--4---3---x--x--x--x-|
and the whole
You are bewitched...
now, when he says YOU ARE BEWITCHED, play this in the same tact and rythm
---------------------|
---------------------|
---------------------|
---------------------|
---------------------|
6---7---8---7---6----|

-----
-----
-----
-----
-----
7-6-5

it's pretty much the same deal in verse 2 as in verse 1, only this time
it's shorter, but play the intro until the chorus

bewitched be delight, you'll reach the night
dancing and singing to my fiddle
So take my hand, and understand
that no-one will see you again

the chorus again, just like before

and after the 2nd chorus follows what appears to be a solo... or, i mean.. not a solo 
something :P

-----------------------------------------------|
-----------------------------------------------|
-----------------------------------------------|
-----------------------------------------------|
-----------------------------------------------|
4----6----8----10----8--9--10--11--10--9----8--|

------------------------------------|
------------------------------------|
------------------------------------|
------------------------------------|
------------------------------------|
4----6----8----10----8--x--x--x--x--|

-----------------------------------------------|
-----------------------------------------------|
-----------------------------------------------|
-----------------------------------------------|
-----------------------------------------------|
4----6----8----10----8--9--10--11--10--9----8--|

-----------------------------------------------|
-----------------------------------------------|
-----------------------------------------------|
-----------------------------------------------|
-----------------------------------------------|
4----6----8----10----8--9--10--11--10--9----8--|

verse 3
the riff in this verse seems to go  something like this over and over again
------------|
------------|
------------|
------------|
3-----------|
1--1--1--1--|

I am the master of the enchanted tune
I'll play for your joy, for your soul, for you doom
My fingers they dance upon the strings like fire
weaving a spell of my burning desire

here comes a solo but omg it's freaking IMPOSSIBLE
after the solo                     x4
--------------------------------------|
--------------------------------------|
--------------------------------------|
--------------------------------------|
5/-7-7---4--3--2----5/-7-7---8--7--10-|
3/-5-5---2--1--0----3/-5-5---6--5--8--|

and of course this one           x2
------------------------------------|
------------------------------------|
------------------------------------|
------------------------------------|
5/--7---4--3--2----5/--7---8--7--10-|
3/--5---2--1--0----3/--5---6--5--8--|

and verse 4 is just like verse 1 and verse 2 thank god
Sing with me, meet your destiny
set yourself free to the magic
So come with me, my kingdom to see
believe me you're captured my friend

chorus
this time it's like the first chorus only that the singer says YOU ARE BEWITCHED three 
but play it like the first time and it'll come out right. then he says YOU ARE BEWITCHED 
fourth time - but there's no guitarplay following, the song ends here.
            

comments powered by Disqus
↑ Back to top | Candlemass Tabs for Bewitched. Lyrics for acoustic guitar and electric guitar. Tablatures and chords are parodies/interpretations of the original songs. You may use it for private study, scholarship, research or language learning purposes only