» » »

Bearer Of Pain Tabs (ver.2)

Artists:  A B C D E F G H I J K L M N O P Q R S T U V W X Y Z # 

Bearer Of Pain Tabs (ver.2)

Candlemass
Rating:
5/5 (1 vote)

Hard to play? Try these video lessons and learn fast.
                Candlemass - Bearer of Pain


Riff A
eb|-----------------|-------------------|
Bb|-----------------|-------------------|
Gb|-----------------|-------------------|
Db|-----------------|-----------7-7-6---|
Ab|-5/4-----4-5-8-7-|-5/4-----4-5-5-4---|
Eb|-3/2-2-2-2-3-6-5-|-3/2-2-2-2---------|
        . .               . .


Riff B + A
eb|--------------|-----------------|-------------------|
Bb|--------------|-----------------|-------------------|
Gb|--------------|-----------------|-------------------|
Db|--------------|-----------------|-----------7-7-6---|
Ab|-----------1--|-5/4-----4-5-8-7-|-5/4-----4-5-5-4---|
Eb|-0---0-2-3----|-3/2-2-2-2-3-6-5-|-3/2-2-2-2---------|
                       . .               . .


Riff C1
eb||------------------|
Bb||------------------|
Gb||------------------|
Db||-----------5-4-5--|
Ab||-----------3-2-3--|
Eb||-000000000--------|
     .........

Riff C2
eb|-----------------|
Bb|-----------------|
Gb|-----------------|
Db|-----------------|
Ab|-3---5--7--5--3--|
Eb|-1---3--5--3--1--|


Play E5


Riff D
eb|---------------------------------|
Bb|---------------------------------|
Gb|---------------------------------| 2x
Db|---------------------------------|
Ab|-2-3-2-0-------------2-3-2---1---|
Eb|---------4-1-0-1-4-5-------3---2-|

Up a step
eb|---------------------------------|
Bb|---------------------------------|
Gb|---------------------------------|
Db|---------------------------------|
Ab|-4-5-4-2-1-------1-2-4-5-4---3---|
Eb|-----------3-2-3-----------5---4-|

Up another step
eb|---------------------------------|
Bb|---------------------------------|
Gb|---------------------------------|
Db|---------------------------------|
Ab|-6-7-6-4-3-------3-4-6-7-6---5---|
Eb|-----------5-4-5-----------7---6-|



Riff E
eb|---------------------------------|--------------------------|
Bb|---------------------------------|--------------------------|
Gb|---------------------------------|--------------------------|
Db|---------------------------------|--------------------------|
Ab|---------------------------------|-----------------6--5--3--|
Eb|-0-0-0-0-0-0-0-0-4-4-4-3-3-3-1-1-|-0-0-0-0-0-0-0-0-4--3--1--|
    . . . . . . . . . . . . . . . .   . . . . . . . .


Riff F
eb|------------------------------------|
Bb|------------------------------------|
Gb|------------------------------------|
Db|----------------------------------5-|
Ab|-6---------5---------4---------3--3-|
Eb|-4---0-3-4-3---0-2-3-2---0-1-2-1----|


Riff G
eb|----------------|---------------|
Bb|----------------|---------------|
Gb|----------------|---------------|
Db|-----------2----|---------------|
Ab|----2--1-2---2--|----2--1-2-1-2-|
Eb|-0--------------|-0-------------|
            
Hard to play? Try these video lessons and learn fast. | Correct




comments powered by Disqus
↑ Back to top | Tablatures and chords are parodies/interpretations of the original songs. You may use it for private study, scholarship, research or language learning purposes only