» » »

Cancer Bats, Regret Tabs (ver.2)

Artists:  A B C D E F G H I J K L M N O P Q R S T U V W X Y Z # 

Regret Tabs (ver.2)

Cancer Bats Tabs
 Rating:
4/5 (4 votes)
Regret lessons Tabs too difficult? Try these video lessons and learn fast
1
                tuning: drop C (CGCFAD)

intro:
|-----------------------------|
|-----------------------------|
|-----------------------------|
|-----------------------------|
|-xxxx--x-xx-xx-x--x-x-xxxx/\-|
|-xxxx--x-xx-xx-x--x-x-xxxx/\-|

verse riff:
|-------------|
|-------------|
|-------------|
|-------------|
|-------------|
|-0-6-5-5-6-8-|

verse riff part 2:
|---------------------|
|---------------------|
|---------------------|
|---------------------|
|-5h7-------3h5-------|
|-----7-5p0-----5-3p0-|

verse riff part 3:
the * is for a pick squeal
|-----------------------|
|-----------------------|
|-----------------------|
|----------------3*-----|
|-----3*-----3h5----5p0-|
|-3h5----5p0------------|

chorus riff part 1:
(i've sailed an ocean of mistakes...)
|---------------------------------|
|---------------------------------|
|---------------------------------|
|---------------------------------|
|-3/5-5-5-5/8-8-8-8\7-7-7-7\6-6-6-|
|-3/5-5-5-5/8-8-8-8\7-7-7-7\6-6-6-|

chorus riff part 2:
|-----------------------------------|
|-----------------------------------|
|-----------------------------------|
|-----------------------------------|
|-3/5-5-5-5/8-8-8-8/12-7-7-7/10-6-6-|
|-3/5-5-5-5/8-8-8-8/12-7-7-7/10-6-6-|

last time end with:
|--------------------------------|
|--------------------------------|
|--------------------------------|
|--------------------------------|
|-3/5-5-5-5/8-8-8-8/12-12-12-12\-|
|-3/5-5-5-5/8-8-8-8/12-12-12-12\-|

post-chorus riff part 1:
(if i could take it all back...)
|-------------------|
|-------------------|
|-------------------|
|-------------------|
|-------------------|
|-03506503503603/8~-|

post-chorus riff part 2:
|--------------------|
|--------------------|
|--------------------|
|--------------------|
|--------------------|
|-03506506608901012~-|

               ^^^
that's a 10 and a 12 there
hold the 12 the last time around

intro mutes part 2, a little different than the first time:
|-------------------------------|
|-------------------------------|
|-------------------------------|
|-------------------------------|
|-xxxx--x-x-xx-xx-x--xx-x-xx-/\-|
|-xxxx--x-x-xx-xx-x--xx-x-xx-/\-|

after this, the parts all just repeat, and you end on

|---|
|---|
|---|
|---|
|-0-|
|-0-|
            
Submit corrections

comments powered by Disqus
↑ Back to top | Cancer Bats Tabs for Regret. Lyrics for acoustic guitar and electric guitar. 1 Tablatures and chords are parodies/interpretations of the original songs. You may use it for private study, scholarship, research or language learning purposes only