» » »

French Immersion Tabs (ver.1)

Artists:  A B C D E F G H I J K L M N O P Q R S T U V W X Y Z # 

French Immersion Tabs (ver.1)

Cancer Bats
Rating:
0/5 (0 votes)

Hard to play? Try these video lessons and learn fast.
                Thanks to the dude who wrote the other tab, it got me started, but i think if you listen 
the song, mines closer to what Scott plays. Tuning drop C is kind of annoying, but 
worth it. Boo-Ya-Ka-Sha.
-Ell!ott Jon3s

Verse 1
D|--------------------------------0|
A|--------------------------------0|
F|--------------------------------0|
C|2-000-/7-00000000-5-0-22-2222----|
G|2-000-/7-00000000-5-0-22-2222----|
C|2-000-/7-00000000-5-0-22-2222----|

Verse 1(#2)  (Alternates between both of these)
D|--------------------------------0|
A|--------------------------------0|
F|--------------------------------0|
C|2-000-/7-00000000-5-0-22-5-0-22--|
G|2-000-/7-00000000-5-0-22-5-0-22--|
C|2-000-/7-00000000-5-0-22-5-0-22--|

Verse 1.5 (Leading into verse 2)
D|---------------------------------------|
A|---------------------------------------|
F|---------------------------------------|
C|2-000-/7-00000000-5-0-22-5-0-22222222--|
G|2-000-/7-00000000-5-0-22-5-0-22222222--|
C|2-000-/7-00000000-5-0-22-5-0-22222222--|

Verse 2
D|------------------------------------|
A|------------------------------------|
F|------------------------------------|
C|5-0-2222222222222-2-00-7-00000000000|
G|5-0-2222222222222-2-00-7-00000000000|
C|5-0-2222222222222-2-00-7-00000000000|

Verse 3
D|----------------------------------|
A|----------------------------------|
F|----------------------------------|
C|10-9-5-0/7-7-7-7-10-9-5-0/7-000000|
G|10-9-5-0/7-7-7-7-10-9-5-0/7-000000|
C|10-9-5-0/7-7-7-7-10-9-5-0/7-000000|

Verse 4
D|------------------------------------------|
A|------------------------------------------|
F|------------------------------------------|
C|33333-66-55555555-33333-55-00000000-------|
G|33333-66-55555555-33333-55-00000000-------|    (i like to slide to 3, but
C|33333-66-55555555-33333-55-00000000-0/15\3|--> it but it can be done to 0)

Order played:
Verse 1
Verse 1(#2)
Verse 1      All played twice, and then end with V1, V1(#2), V1, V1(#2)
Verse 1.5
Verse 2 (X4)
Verse 3 (X4)
Verse 4 (X4)

This is my first tab, so let me know how i did!
and lets get some more Cancer Bats tabs on here!!
Yeeeeaaaahhhhhh!!!
            
Hard to play? Try these video lessons and learn fast. | Correct




comments powered by Disqus
↑ Back to top | Tablatures and chords are parodies/interpretations of the original songs. You may use it for private study, scholarship, research or language learning purposes only