» » »

Cancer Bats, Deathsmarch Bass tabs (ver.1)

Artists:  A B C D E F G H I J K L M N O P Q R S T U V W X Y Z # 

Deathsmarch Bass tabs (ver.1)

Cancer Bats Tabs
 Rating:
4.2/5 (5 votes)
Deathsmarch lessons Tabs too difficult? Try these video lessons and learn fast
1
                -------------------------------------------------------------------------------
			     DEATHSMARCH (BASS) - Cancer Bats
-------------------------------------------------------------------------------


Tuning: Drop C

Into

F|-----------------|  
C|-----------------|x4
G|-----------------|  
C|-3-/-7~--7-\-3~--|  
                                    
                          

Verse

F|-----------------------------------|
C|-----------------------------------|
G|-----------------------------------|
C|-3/7-7-7-7-7-7-7-7-7-7-7-7-7-7-7-7-|\
                                       \
                                        x3
F|-----------------------------------| /
C|-----------------------------------|/
G|-----------------------------------|
C|-7\3-3-3-3-3-3-3-3-3-3-3-3-3-3-3-3-| 


(On third time through, play this instead of the 3's)
F|-------------------------------------|
C|-------------------------------------|
G|-------------------------------------|
C|-7\3-3-3-3-3-3-3-3-0-3-0-0-3-0-0-3-0-|
 

Chorus

F|-------------------------|
C|-------------------------|x2
G|-------------------------|
C|-7-77-6-66-3-3-0-3-3-0-3-|


F|-------------------------------------------------------|
C|-------------------------------------------------------|
G|-------------------------------------------------------|
C|-7-77-6-66-3-3-0-3-3-0-3--3-3-0-3-3-0-3--3-3-0-3-3-0-3-|

Repeat Intro
Repeat Verse
Repeat Chorus

Bridge/Solo

F|-------------------------------------|
C|-------------------------------------|\
G|-------------------------------------| \
C|-3/7-7-7-7-7-7-7-7-7-7-7-7-7-7-7-7---|  \
                                          x5
                                          /
                                         /
F|-------------------------------------|/ 
C|-------------------------------------|
G|-------------------------------------|
C|-7\3-3-3-3-3-3-3-3-3-3-3-3-3-3-3-3---|



Repeat Chorus
Repeat Intro 


-------------------------------------------------------------------------------
That should be it. It's a simple song, but good fun.
If you notice anything wrong and have any corrections, post in the comments or

Have a good one!
-------------------------------------------------------------------------------
            
Submit corrections

comments powered by Disqus
↑ Back to top | Cancer Bats Bass for Deathsmarch. Lyrics for acoustic guitar and electric guitar. 1 Tablatures and chords are parodies/interpretations of the original songs. You may use it for private study, scholarship, research or language learning purposes only