» » »

Deathsmarch Tabs (ver.1)

Artists:  A B C D E F G H I J K L M N O P Q R S T U V W X Y Z # 

Deathsmarch Tabs (ver.1)

Cancer Bats
Rating:
5/5 (1 vote)

Hard to play? Try these video lessons and learn fast.
                Drop C tuning

Into
|-----------------|  |-----------------|
|-----------------|  |-----------------|
|-----------------|  |-----------------|
|-3-/-7~--7-\-3~--|x3|-3-/-7~--7-\-3---|
|-3-/-7~--7-\-3~--|  |-3-/-7~--7-\-3---|
|-3-/-7~--7-\-3~--|  |-3-/-7~--7-\-3~--|
                                    ^
                          use a killswitch here
                          to get the effect on the recording

Verse
|-----------------------------------|
|-----------------------------------|
|-----------------------------------|
|-3/7-7-7-7-7-7-7-7-7-7-7-7-7-7-7-7-|
|-3/7-7-7-7-7-7-7-7-7-7-7-7-7-7-7-7-|
|-3/7-7-7-7-7-7-7-7-7-7-7-7-7-7-7-7-|

|-----------------------------------|
|-----------------------------------|
|-----------------------------------|
|-7\3-3-3-3-3-3-3-3-3-3-3-3-3-3-3-3-|
|-7\3-3-3-3-3-3-3-3-3-3-3-3-3-3-3-3-|
|-7\3-3-3-3-3-3-3-3-3-3-3-3-3-3-3-3-|

|-------------------------------------|
|-------------------------------------|
|-5/9-9-9-9-9-9-9-9-9b9-9-9-9-9-9-9rb-|
|-3/7-7-7-7-7-7-7-7-7-7-7-7-7-7-7-7---|\
|-3/7-7-7-7-7-7-7-7-7-7-7-7-7-7-7-7---| \
|-3/7-7-7-7-7-7-7-7-7-7-7-7-7-7-7-7---|  \
                                          x2
|-------------------------------------|  /
|-------------------------------------| /  
|-9\5-5-5-5-5-5-5-5-5b3-5-5-5-5-5-5rb-|/ 
|-7\3-3-3-3-3-3-3-3-3-3-3-3-3-3-3-3---|
|-7\3-3-3-3-3-3-3-3-3-3-3-3-3-3-3-3---|
|-7\3-3-3-3-3-3-3-3-3-3-3-3-3-3-3-3---|

|-------------------------------------|
|-------------------------------------|
|-5/9-9-9-9-9-9-9-9-9b9-9-9-9-9-9-9rb-|
|-3/7-7-7-7-7-7-7-7-7-7-7-7-7-7-7-7---|
|-3/7-7-7-7-7-7-7-7-7-7-7-7-7-7-7-7---|
|-3/7-7-7-7-7-7-7-7-7-7-7-7-7-7-7-7---|

|-------------------------------------|
|-------------------------------------| 
|-9\5-5-5-5-5-5-5-5-------------------|
|-7\3-3-3-3-3-3-3-3-0-3-0-0-3-0-0-3-0-|
|-7\3-3-3-3-3-3-3-3-0-3-0-0-3-0-0-3-0-|
|-7\3-3-3-3-3-3-3-3-0-3-0-0-3-0-0-3-0-|
PM                  *   * *   * *   * 

Chorus
|-------------------------|
|-------------------------|
|-------------------------|
|-7-77-6-66-3-3-0-3-3-0-3-|x2
|-7-77-6-66-3-3-0-3-3-0-3-|
|-7-77-6-66-3-3-0-3-3-0-3-|
PM              *     *

|-------------------------------------------------------|
|-------------------------------------------------------|
|-------------------------------------------------------|
|-7-77-6-66-3-3-0-3-3-0-3--3-3-0-3-3-0-3--3-3-0-3-3-0-3-|
|-7-77-6-66-3-3-0-3-3-0-3--3-3-0-3-3-0-3--3-3-0-3-3-0-3-|
|-7-77-6-66-3-3-0-3-3-0-3--3-3-0-3-3-0-3--3-3-0-3-3-0-3-|
PM              *     *        *     *        *     *

Repeat Verse
Repeat Chorus

Bridge
|-------------------------------------|
|-------------------------------------|
|-5/9-9-9-9-9-9-9-9b9-9-9-9-9-9-9-9rb-|
|-3/7-7-7-7-7-7-7-7-7-7-7-7-7-7-7-7---|\
|-3/7-7-7-7-7-7-7-7-7-7-7-7-7-7-7-7---| \
|-3/7-7-7-7-7-7-7-7-7-7-7-7-7-7-7-7---|  \
                                          x2
|-------------------------------------|  /
|-------------------------------------| /
|-9\5-5-5-5-5-5-5-5-5b3-5-5-5-5-5-5rb-|/ 
|-7\3-3-3-3-3-3-3-3-3-3-3-3-3-3-3-3---|
|-7\3-3-3-3-3-3-3-3-3-3-3-3-3-3-3-3---|
|-7\3-3-3-3-3-3-3-3-3-3-3-3-3-3-3-3---|

|-------------------------|
|-------------------------|
|-19-19-19-19-19-19-19-19-|
|-17-17-17-17-17-17-17-17-|
|-------------------------|
|-------------------------|

Solo (not 100% on this but it sounds close anyway)
|-----------|  |----------|-----------|  |-----------------|
|-----------|  |----------|-----------|  |-----------------|
|-21-2121---|4x|-17171717-|-21-2121---|3x|-171717-19191919-|
|-19b1919rb-|  |-15151515-|-19b1919rb-|  |-151515-17171717-|
|-----------|  |----------|-----------|  |-----------------|
|-----------|  |----------|-----------|  |-----------------|

|-----------|  |----------|----|
|-----------|  |----------|----|
|-21-2121---|4x|-17171717-|-22-|
|-19b1919rb-|  |-15151515-|-20-|
|-----------|  |----------|----|
|-----------|  |----------|----|
                             ^
Play this 16x and with a gradual bend and gradual release

Repeat Chorus
Repeat Intro only flick the killswitch more on the last chord and your done :)
            
Hard to play? Try these video lessons and learn fast. | Correct




comments powered by Disqus
↑ Back to top | Tablatures and chords are parodies/interpretations of the original songs. You may use it for private study, scholarship, research or language learning purposes only