» » »

Sink Into The Underground Tabs (ver.2)

Artists:  A B C D E F G H I J K L M N O P Q R S T U V W X Y Z # 

Sink Into The Underground Tabs (ver.2)

Camp Kill Yourself
Rating:
0/5 (0 votes)

Hard to play? Try these video lessons and learn fast.
                TUNE TO DROPPED D

INTRO
-------------2-2-0-0---------------------------------------------
-----0-0-4-4---------4-4-2-0-4-0-----4-4-2-2-0-0-----------4-2-0-
-4-4-----------------------------2-2-------------4-4-2-2-4-------

Verse                   Pre chorus
--------------------  | -------------
--------------------  | -------------
--------------------  | -7~-6~-9-11--
-4--4-4--2--2-2-----2x| -7~-6~-9-11--
-4--4-4--2--2-2-----  | -5~-4~-7-9---
-4--4-4--2--2-2-----  | -------------

INTRO

4--4-4--2--2-2 -----------2-2-0-0---------------------------------------------
4--4-4--2--2-2-----0-0-4-4---------4-4-2-0-4-0-----4-4-2-2-0-0-----------4-2-0
4--4-4--2--2-2-4-4-----------------------------2-2-------------4-4-2-2-4------

-------------
-------------
-7~-6~-9-11--
-7~-6~-9-11-- 2x
-5~-4~-7-9---
-------------

CHORUS
--------------------------------------------
--------------------------------------------
--------------------------------------------
------------------0------------------------- 2x
-----0--2-4----0---4-2-0h2-0h20h20h2-0h20h2-
-4-4--4----4--4-4------0h2-0h20h20h2-0h20h2-

INTRO 2x

PRE CHORUS 2x

CHORUS

----
----
----
-4--
-4--
-4--	

That's it kids. Tell me if there's any mistakes or stuff like that so i can fix them. Don't forget to rate it!
            
Hard to play? Try these video lessons and learn fast. | Correct




comments powered by Disqus
↑ Back to top | Tablatures and chords are parodies/interpretations of the original songs. You may use it for private study, scholarship, research or language learning purposes only