» » »

Disengage The Simulator Tabs (ver.2)

Artists:  A B C D E F G H I J K L M N O P Q R S T U V W X Y Z # 

Disengage The Simulator Tabs (ver.2)

Camp Kill Yourself
Rating:
0/5 (0 votes)

Tabs too difficult? Try these video lessons and learn fast.
                I'm so sick of seeing the wrong tabs for this song so i tabbed it correctly myself. Here it is. 
oh yeah, it's in STANDARD TUNING.

Intro/Verse - 2x
E------------------------------------
B------------------------------------
G------------------------------------
D-2--2-2-2----2-2-2--2---2-----1-----
A-2--2-2-2--2---2-2--2-2---2-----2---
E-0--0-0-0------0-0--0-------4-------

Fill 1 - 2x
E--------------------------
B--------------------------
G--------------------------
D-----2-2-4-4-----4-4-6-6--
A-4-4---------2-2----------
E--------------------------

VERSE 2x
Fill 1 2x

Fill 2
E--------------------------
B--------------------------
G-----4-4-6-6-----6-6-8-8--
D-6-6-2-2-4-4-4-4-4-4-6-6--
A-4-4---------2-2----------
E--------------------------

Intro/Verse - 2x
E------------------------------------
B------------------------------------
G------------------------------------
D-2--2-2-2----2-2-2--2---2-----1-----
A-2--2-2-2--2---2-2--2-2---2-----2---
E-0--0-0-0------0-0--0-------4-------

Fill 1 - 2x
E--------------------------
B--------------------------
G--------------------------
D-----2-2-4-4-----4-4-6-6--
A-4-4---------2-2----------
E--------------------------

Intro/Verse - 2x
E------------------------------------
B------------------------------------
G------------------------------------
D-2--2-2-2----2-2-2--2---2-----1-----
A-2--2-2-2--2---2-2--2-2---2-----2---
E-0--0-0-0------0-0--0-------4-------

Fill   1x
Fill 2 1x

Chorus 4x
E--------------------------------------------------
B----------------------------3-------3-------5-----
G----------------0---------2---2---2---2---4---4---
D-2--2-2-2-0---0---4-2---0-------0-------2---------
A-2--2-2-----2---------4---------------------------
E-0--0-0-------------------------------------------

Verse 2 3x
E-------------------
B-------------------
G-------------------
D-2-2-2-2--2-2-2----
A-2-2-2-2--2-2-2----
E-0-0-0-0--0-0-0----

That's basically it. You can figure out the order yourselves.
I'm not here to do everything for you.
            
Tabs too difficult? Try these video lessons and learn fast.




comments powered by Disqus
↑ Back to top | Tablatures and chords are parodies/interpretations of the original songs. You may use it for private study, scholarship, research or language learning purposes only