» » »

96 Quite Bitter Beings Tabs (ver.1)

Artists:  A B C D E F G H I J K L M N O P Q R S T U V W X Y Z # 

96 Quite Bitter Beings Tabs (ver.1)

Camp Kill Yourself
Rating:
0/5 (0 votes)

Hard to play? Try these video lessons and learn fast.
                im not sure if this tab is completely correct,
but it sounds good to me.

Intro
e--------------------------------------------
B--------------------------------------------
G--------------------------------------------
D------9-9-------9h10p9---------10/12-10--9-7
A--7h10--7---7h10------10-9---10-------------
E----------------------------8---------------
(intro continued)
e-------
B-------
G-0----0
D---7/9-
A-------
E-------

Verse (gtr 1)     Verse (gtr 2)
e-------------    e-------------
B-------------    B-------------
G-------------    G-------------
D--222--2--666    D--999--9--666
A--222--2--444    A--777--7--444
E--000--0-----    E-------------
            
Hard to play? Try these video lessons and learn fast. | Correct




comments powered by Disqus
↑ Back to top | Tablatures and chords are parodies/interpretations of the original songs. You may use it for private study, scholarship, research or language learning purposes only