» » »

I'm Not Alone Tabs (ver.3)

Artists:  A B C D E F G H I J K L M N O P Q R S T U V W X Y Z # 

I'm Not Alone Tabs (ver.3)

Calvin Harris
Rating:
0/5 (0 votes)

Hard to play? Try these video lessons and learn fast.
                --------------------------------------------------------------------------
                        I'm Not Alone - Calvin Harris
--------------------------------------------------------------------------

Tuning:Standard

e|----------------------------------|--------------------------------------|
B|----------------------------------|--------------------------------------|
G|--------------------------7-------|--------------------------------------|
D|---9-------9-------9----------9---|---7-------7--------7---5---4---------|
A|-------7-------7-------7----------|-------5--------5----------------7----|
E|----------------------------------|--------------------------------------|

repeat 12x times

rythm
e|------------------------------|-------------------------------------------|
B|------------------------------|-------------------------------------------|
G|------------------------------|-------------------------------------------|
D|---4----4----7----7----9----9-|-9----7----9----12----12----16----16----9--|
A|---2----2----5----5----7----7-|-7----5----7----10----10----14----14----7--|
E|------------------------------|-------------------------------------------|

e|-----------------|--------------------------------------------------------|
B|-----------------|--------------------------------------------------------|
G|-----------------|--------------------------------------------------------|
D|---9----7----5---|--------------------------------------------------------|
A|---7----5----3---|--------------------------------------------------------|
E|-----------------|--------------------------------------------------------|

lead melody
                 v                  v    v     v  v  v
e|-----------------|---------3-3-3--7------|-----------|--------------------|
B|---0-0-0-3--3--5-|---5-3-5-----------5-5-|---5--3--1-|--------------------|
G|-----------------|-----------------------|-----------|--------------------|
D|-----------------|-----------------------|-----------|--------------------|
A|-----------------|-----------------------|-----------|--------------------|
E|-----------------|-----------------------|-----------|--------------------|

repeat so many times

alternativly lead melody played like this.

                     v      v       v     v  v  v   v  v  v   v          v
e|----------------------|--------------|-----------------------------------|
B|----------------------|--------------|-----------------------------------|
G|----------------------|--------------|-----------------------------------|
D|----------------------|--------------|--17-17-17--21-21-21---------------|
A|---14-14-14--17-17-19-|---19--17--19-|----------------------19--19--17-14|
E|----------------------|--------------|-----------------------------------|

repeat so many times

bass melody is as follows

     v     v  v v     v      v  v  v  v v v  v          v
e|----------------|---------------------------------------|
B|----------------|---------------------------------------|
G|----------------|---------------------------------------|
D|----------------|-------------------9-9-9---------------|
A|---------------7|---7------10-10-10--------7------------|
E|---7-7-7-10-10--|-----10-8---------------------10--8--7-|

| /  slide up
| \  slide down
| h  hammer-on
| p  pull-off
| ~  vibrato
| +  harmonic
| x  Mute note
===============================================================================
            
Hard to play? Try these video lessons and learn fast. | Correct




comments powered by Disqus
↑ Back to top | Tablatures and chords are parodies/interpretations of the original songs. You may use it for private study, scholarship, research or language learning purposes only