» » »

Calvin Harris, Acceptable In The 80s Tabs (ver.2)

Artists:  A B C D E F G H I J K L M N O P Q R S T U V W X Y Z # 

Acceptable In The 80s Tabs (ver.2)

Calvin Harris Tabs
Rating:
0/5 (0 votes)
Acceptable In The 80s lessons Tabs too difficult? Try these video lessons and learn fast
                Ok so this is what i got after looking at a different tab by nariek.
that one sounded correct enough, but here is the song within finger length, an a 
little easier to play.

Tuning: Standard

Intro: Based off of the bass tab, this is about right for the song
|-------------------------------------------------------------|
|-------------------------------------------------------------|strum along with the rhythm
|-------------------------------------------------------------| to get it just right
|----2--2--2--2--5--5--5--5---10--10--10--10--12--9--9--9--9--|
|----2--2--2--2--5--5--5--5---10--10--10--10--12--9--9--9--9--|
|----0--0--0--0--3--3--3--3----8---8---8---8--10--7--7--7--7--|

then for the chorus part its basically this

|-------------------------------------------|
|-------------------------------------------|
|-------------------------------------------|
|-------------------------------1------7--7-|
|----------------------------3-----3---5--5-|
|----0--0--5--3--0--5--3--2-----------------|

this sounds correct, and if it is, then the notes being used are:
E, A, G, F#, C, D#, and then frm D# back to C there are different
ways to get this combination other than the way i did it, but this is
the way i play it. feel free to noodle around with what i submitted.
thanx for reading
            
Submit corrections

comments powered by Disqus
↑ Back to top | Calvin Harris Tabs for Acceptable In The 80s. Lyrics for acoustic guitar and electric guitar. Tablatures and chords are parodies/interpretations of the original songs. You may use it for private study, scholarship, research or language learning purposes only