» » »

Where Ever You Will Go Bass tabs (ver.1)

Artists:  A B C D E F G H I J K L M N O P Q R S T U V W X Y Z # 

Where Ever You Will Go Bass tabs (ver.1)

Calling
Rating:
0/5 (0 votes)

Hard to play? Try these video lessons and learn fast.
                This is my FIRST TAB but I'm pretty sure 
that this is almost 99.99% correct!!!
Juz listen to the timing!!!


This is d part where d bass will enter
...If a great wave shall fall...
G/---------------------------------------------------
D/---------------------------------------------------
A/-12---12-11---9------------------------------------
E/------------------10---10/5---5-4---4-2---33333333-
	
	Chorus x2
G/----------------------------------
D/----------------------------------
A/-5-555557-------------------------
E/---------5-5555557-7777773-333333-
	
	Verse x3
G/-----------------------------------
D/-----------------------------------
A/-55-5--5--4--4-4442--2--2-3--3-333-
E/-----------------------------------

...then I hope there's someone...
G/-----------------------------------
D/-----------------------------------
A/-55-5--5--4--4-4442--2--2-33333333-
E/-----------------------------------
	
	then chorus x2

	Bridge
G/----------------------------------------------------
D/----------------------------------------------------
A/----------------------------------------------------
E/-3/7-7--33333333/5-5--22222222/7-7-3333333333333333-

	bass will re-enter in GO... 
	juz listen 4 d timing
...I know how...might still GO...

G/----------------------------------------
D/-------10-12---12-11---9h119------------
A/-10-12----------------------------------
E/-------------------------------33333333-

	go back to chorus x4

	Bass Solo
G/-----------------------------------
D/-----------------------------------
A/-5--7--9----/10-7----12-10910979-7-
E/---------5--------7----------------

	Chorus again x2 but end with

G/----------
D/----------
A/----------
E/-3--3/7-3-

that's all, if you have any questions, suggestions
or whatever, you can e-mail me at
            
Hard to play? Try these video lessons and learn fast. | Correct




comments powered by Disqus
↑ Back to top | Tablatures and chords are parodies/interpretations of the original songs. You may use it for private study, scholarship, research or language learning purposes only