» » »

Just That Good Bass tabs (ver.1)

Artists:  A B C D E F G H I J K L M N O P Q R S T U V W X Y Z # 

Just That Good Bass tabs (ver.1)

Calling
Rating:
0/5 (0 votes)

Hard to play? Try these video lessons and learn fast.
                Intro:

----------------------------------------|
----------------------------------------|       x5
-9---------10-----------------11--------|
--------------------10------------------|


Riff One:

------------------------------------------|
------------------------------------------|
----------------11-11-11---------10-10-10-|
-2/11--11-11-11----------10-10-10---------|


Riff Two:

-------------------------------------------|
-------------------------------------------|
-------9-9-9-------8-8-8-------7-7-7-------|
-9-9-9-------8-8-8-------7-7-7-------6-6-6-|


Riff Three:

------------------------------------------------|
------------------------------------------------|
---10---8---9---7---8---6-----------------------|
-9--------8-------7-------9---10---11-----------|


i couldn't be bothered to work out how many time each are played
it isnt that hard to distinguish between then though
goood look
            
Hard to play? Try these video lessons and learn fast. | Correct




comments powered by Disqus
↑ Back to top | Tablatures and chords are parodies/interpretations of the original songs. You may use it for private study, scholarship, research or language learning purposes only