» » »

Star Bass tabs (ver.1)

Artists:  A B C D E F G H I J K L M N O P Q R S T U V W X Y Z # 

Star Bass tabs (ver.1)

Callalily
Rating:
0/5 (0 votes)

Tabs too difficult? Try these video lessons and learn fast.
                Band: Callalily


Intro I:
G|----|-------|-----|-----|
D|----|-------|-----|-----|
A|----|-----5-|-5-7-|-7\3-|
E|-3--|-3/5---|-----|-----|

G|----|-------|-----|-----|
D|----|-------|-----|-----|
A|----|-----5-|-5-7-|-7\3-|
E|-3--|-3/5---|-----|-----|


Intro II:
G|------|-----------|--------|-------|
D|------|-----------|--------|-------|
A|------|-----55555-|-/77777-|-33333-|
E|-3333-|-3/5-------|--------|-------|

G|------|-----------|----------|
D|------|-----------|----------|
A|------|-----55555-|--3x-3x-3-|
E|-3333-|-3/5-------|----------|


Verse I:
G|-----|-------|-----|-------|-----|-------|-----|-------|
D|-----|-------|-----|-------|-----|-------|-----|-------|
A|-----|-------|-5~--|-5\3~--|-----|-------|-5~--|-5\3~--|
E|-0~--|-0-3~--|-----|-------|-0~--|-0-3~--|-----|-------|


Refrain:
G|-----|-------|-----|-------|-----|-------|-----|-------|
D|-----|-------|-----|-------|-----|-------|-----|-------|
A|-----|-------|-5~--|-5\3~--|-----|-------|-5~--|-5\3~--|
E|-0~--|-0-3~--|-----|-------|-0~--|-0-3~--|-----|-------|


Chorus I:
G|------|-----------|--------|-------|
D|------|-----------|--------|-------|
A|------|-----55555-|-/77777-|-33333-|
E|-3333-|-3/5-------|--------|-------|

G|------|-----------|----------|
D|------|-----------|----------|
A|------|-----55555-|--3x-3x-3-|
E|-3333-|-3/5-------|----------|


Repeat Intro II, Verse I, Refrain and Chorus I


Adlib:
G|---|------|---|---------------|---|------|---|---------------|
D|---|------|---|----------10~--|---|------|---|----------10~--|
A|-7-|-7/10-|-5-|-5\3-3/10------|-7-|-7/10-|-5-|-5\3-3/10------|
E|---|------|---|---------------|---|------|---|---------------|


Refrain II:
G|---|-----------------|
D|---|-----------------|
A|---|-33x-33x-33x-333-|
E|-x-|-----------------|


Chorus II:
G|------|-----------|--------|-------|
D|------|-----------|--------|-------|
A|------|-----55555-|-/77777-|-33333-|
E|-3333-|-3/5-------|--------|-------|

G|------|-----------|------------------|
D|------|-----------|------------------|
A|------|-----55555-|--33x-33x-33x-333-|
E|-3333-|-3/5-------|------------------|

G|------|-----------|--------|-------|
D|------|-----------|--------|-------|
A|------|-----55555-|-/77777-|-33333-|
E|-3333-|-3/5-------|--------|-------|

G|------|-----------|------------------|
D|------|-----------|------------------|
A|------|-----55555-|--33x-33x-33x-333-|
E|-3333-|-3/5-------|------------------|

G|------|-----------|--------|-------|
D|------|-----------|--------|-------|
A|------|-----55555-|-/77777-|-33333-|
E|-3333-|-3/5-------|--------|-------|

G|------|-----------|----------|
D|------|-----------|----------|
A|------|-----55555-|--3x-3x-3-|
E|-3333-|-3/5-------|----------|


Outro:
G|------|-----------|--------|-------|
D|------|-----------|--------|-------|
A|------|-----55555-|-/77777-|-33333-|
E|-3333-|-3/5-------|--------|-------|

G|------|-----------|----------|
D|------|-----------|----------|
A|------|-----55555-|--3x-3x-3-|
E|-3333-|-3/5-------|----------|
            
Tabs too difficult? Try these video lessons and learn fast.




comments powered by Disqus
↑ Back to top | Tablatures and chords are parodies/interpretations of the original songs. You may use it for private study, scholarship, research or language learning purposes only