» » »

Callalily, Star Tabs (ver.3)

Artists:  A B C D E F G H I J K L M N O P Q R S T U V W X Y Z # 

Star Tabs (ver.3)

Callalily Tabs
 Rating:
4/5 (4 votes)
Star lessons Tabs too difficult? Try these video lessons and learn fast
1
                Album:Destination XYZ
GuYZ e2 na ung Tab ko ng Stars..
e2 na ung pinaka malapit sa tunog ng music
thanks nga pla sa mga taga OBMC especially:
sec4-B
BLUE Plate band:
AKI CAPUCHINO
EDDIE EMBESTRO
RUSSEL SANDIKO
REIJI YOSHIZAWA
AINJ A. BULANADI


Intro:
e------------------------------------------------|
B------------15----------------------------------|
G-----12-12-----12--14-14--14-14h16-14-14s12-----|
D------------------------------------------------|
A------------------------------------------------|
E------------------------------------------------|

Verse Chords:
Em-C-G-D


Prechorus:
Em-C-G-D


Chorus1:
G-D-Em-C

Intro:
Verse:
Pre Chorus:
Chorus1:

ADLIB:
e------------------------------------------------|
B------------------------------------------------|
G------------------------------13h16-12-12h14-14-|
D--------8h9-8--12h14-14-12-14-------------------|
A--9h11-9-----9----------------------------------|
E------------------------------------------------|

e------------------------------------------------|
B------------------------------------------------|
G------------------------------12h14-12-7h9-7----|
D----------10-9----12h14-14-12-------------------|
A--10-9---------10-------------------------------|
E-------10---------------------------------------|

Pre Chorus:
Chorus2:
G-D-Em-C

Chorus1:
Intro:
(END)

Suppot nyo lng lagi ang OPM music..!!!ü
            
Submit corrections

comments powered by Disqus
↑ Back to top | Callalily Tabs for Star. Lyrics for acoustic guitar and electric guitar. 1 Tablatures and chords are parodies/interpretations of the original songs. You may use it for private study, scholarship, research or language learning purposes only