» » »

Caliban, Vicious Circle Tabs (ver.1)

Artists:  A B C D E F G H I J K L M N O P Q R S T U V W X Y Z # 

Vicious Circle Tabs (ver.1)

Caliban Tabs
 Rating:
4/5 (4 votes)
Vicious Circle lessons Tabs too difficult? Try these video lessons and learn fast
1
                1ra||----------------------------------------------||x4
2da||----------------------------------------------||
3ra||----------------------------------------------||
4ta||----------------------------------------------||
5ta||-------6p5------6p5-4h5-------6p5-4-4-4-1-1-1-||
6ta||-0-0-0----0-0-0---------0-0-0-----------------||

||-------------||x2||----------||
||-------------||  ||----------||
||-8-10-11-10--||  ||-8-13--10-||
||-------------||  ||-------8--||
||-6-8--9--8---||  ||-6-11--8--||
||-------------||  ||----------||

||----------------------------------------------||x2
||----------------------------------------------||
||----------------------------------------------||
||----------------------------------------------||
||-------6p5------6p5-4h5-------5h7-4-4-4-1-1-1-||
||-0-0-0----0-0-0---------0-0-0-----------------||

||-----||xXx2 ||-------------||x4
||-----||     ||-------------||
||-----||     ||-------8-9-7-||
||0-0-0||     ||-0-0-0-------||
||0-0-0||     ||-0-0-0-6-7-5-||
||0-0-0||     ||-0-0-0-------|| 

||----------------||x16 
||----------------||
||----------------||
||1-2-3---5-4-3-4-||
||1-2-3---5-4-3-4-||
||1-2-3---5-4-3-4-||

||-------------||x2||----------||
||-------------||  ||----------||
||-8-10-11-10--||  ||-8-13--10-||
||-------------||  ||-------8--||
||-6-8--9--8---||  ||-6-11--8--||
||-------------||  ||-------8--||

||----------------------------------------------||x4
||----------------------------------------------||
||----------------------------------------------||
||----------------------------------------------||
||-------6p5------6p5-4h5-------5h7-4-4-4-1-1-1-||
||-0-0-0----0-0-0---------0-0-0-----------------||

||-------------||x4     
||-------------||
||-------8-9-7-||
||-0-0-0-------||
||-0-0-0-6-7-5-||
||-0-0-0-------|| 

||---------------||
||---------------|| 
||-8-10-11-10--10||  
||-------------8-||  
||-6-8--9--8---8-||  
||-------------8-||


||------||
||------|| 
||--10-9||  
||--8--9||  
||--8--9||  
||--8--7||
            
Submit corrections

comments powered by Disqus
↑ Back to top | Caliban Tabs for Vicious Circle. Lyrics for acoustic guitar and electric guitar. 1 Tablatures and chords are parodies/interpretations of the original songs. You may use it for private study, scholarship, research or language learning purposes only