» » »

Beloved And The Hatred Tabs (ver.2)

Artists:  A B C D E F G H I J K L M N O P Q R S T U V W X Y Z # 

Beloved And The Hatred Tabs (ver.2)

Caliban
Rating:
4/5 (7 votes)

Tabs too difficult? Try these video lessons and learn fast.
                
Tuning: Drop C    CGCFAD

            
/ - Slide up    \ - Slide down
h - Hammer on   p - Pull off
. - Palm mute


|---------------------|
|---------------------|
|---------------------|
|---------------------|
|--11000000110000000--|
|--11000000110000000--|x4



 Guitar 1
|--------------------------------------------------|
|--------------------------------------3--1--------|
|--------2--1--------------------------2--2--------|
|--0-----0--0----------333--555--0-------------0---|
|--0-----------0h1-1---111--333--0-----------3-0---|
|--0-----------------------------0-------------0---|
|PM                    ..   ..
|
|Guitar 2
|--------------------------------------------------|
|--------------------------------------3--1--------|
|--------2--1--------------------------2--2--------|
|--0-----0--0----------333--555--0-------------0---|
|--0-----------3h5-5---111--333--0-----------3-0---|
|--0-----------------------------0-------------0---|x2
PM                     ..   ..



It is also possible for one guitar to play it this way 
but it doesn't sound quite as good.

|--------------------------------------------------|
|--------------------------------------3--1--------|
|--------2--1--------------------------2--2--------|
|--0-----0--0----------333--555--0-------------0---|
|--0-----------3/5-5---111--333--0-----------3-0---|
|--0-----------7/8-8-------------0-------------0---|x2
PM                     ..   ..



|---------------------|
|---------------------|
|---------------------|       
|--1---2---4p3-2p0----|   
|--1-0-2-0-4p3-2p0----|       
|--1-0-2-0-4p3-2p0----| 
PM   .   .


                                   x7             8th time
|------------------------------------|--------------------|
|------------------------------------|--------------------|
|------------------------------------|--------------------|
|--2p1-0-0-11111111-1---2---4p3-2p0--|--2p1-0-0-11111111--|
|--2p1-0-0-11111111-1-0-2-0-4p3-2p0--|--2p1-0-0-11111111--|
|--2p1-0-0-11111111-1-0-2-0-4p3-2p0--|--2p1-0-0-11111111--|
PM     . . ........   .   .                 . . ........


                            x3               4th time
|-----------------------------|----------------------|
|-----------------------------|----------------------|
|-----------------------------|----------------------|
|-----------------------------|----------------------|
|--0-0-0--0-00000-0-0--0-0-0--|--0-0-0--0-00000-0-0--|
|--0-0-0--0-00000-0-0--0-0-0--|--0-0-0--0-00000-0-0--|
PM . . .  . ..... . .  . . .     . . .  . ..... . .



|--------------------|
|--------------------| Starts a little bit before the
|-----13--13---------| end of the riff above.
|---11--11--11--11---| 
|-12----------12-----|
|--------------------|



 Guitar 1
|------------------------------------------------------------------|
|------------------------------------------------------------------|
|-----13--13----------13--13----------13--13----------13--14--13---|
|---11--11--11--11--11--11--11--11--11--11--11--11--11--11--11--11-| 
|-12----------12--12----------12--12----------12--12---------------|
|------------------------------------------------------------------|
|
|------------------------------------------------------------------|
|------------------------------------------------------------------|
|-----13--13----------13--13----------13--13------14--13--14--13---|
|---11--11--11--11--11--11--11--11--11--11--11--11--11--11--11--11-| 
|-12----------12--12----------12--12----------12-------------------|
|------------------------------------------------------------------|x2
|
|
|Guitar 2
|-----------------------------------------------|
|-----------------------------------------------|
|-----------------------------------------------|
|-0--------2----4--------7----0--------4----2---|
|-0--------2----4--------7----0--------4----2---|
|-0--------2----4--------7----0--------4----2---|x2



|------------------------------------------------------------|
|------------------------------------------------------------|
|--7----7/8------------8/10-5/8-7----7/8--------7\5-5\3-3\2--|
|--7----7/8------------8/10-5/8-7----7/8--------7\5-5\3-3\2--|
|--5----5/6------------6/8--3/6-5----5/6--------5\3-3\1-1\0--|
|---0000---000000000000----------0000---00000000-------------|X4
PM  ....   ............          ....   ........



|---------------------|
|---------------------|
|---------------------|       
|--1---2---4p3-2p0----|   
|--1-0-2-0-4p3-2p0----|       
|--1-0-2-0-4p3-2p0----|
PM   .   .


                                   x3               4th time
|------------------------------------|----------------------|
|------------------------------------|----------------------|
|------------------------------------|----------------------|
|--2p1-0-0-11111111-1---2---4p3-2p0--|--2p1-0-0-11111111-0--|
|--2p1-0-0-11111111-1-0-2-0-4p3-2p0--|--2p1-0-0-11111111-0--|
|--2p1-0-0-11111111-1-0-2-0-4p3-2p0--|--2p1-0-0-11111111-0--|
PM     . . ........   .   .                 . . ........ .



|--------------------|
|--------------------|
|-----13--13---------|
|---11--11--11--11---| 
|-12----------12-----|
|--------------------|



 Guitar 1
|------------------------------------------------------------------|
|------------------------------------------------------------------|
|-----13--13----------13--13----------13--13----------13--14--13---|
|---11--11--11--11--11--11--11--11--11--11--11--11--11--11--11--11-| 
|-12----------12--12----------12--12----------12--12---------------|
|------------------------------------------------------------------|
|
|------------------------------------------------------------------|
|------------------------------------------------------------------|
|-----13--13----------13--13----------13--13------14--13--14--13---|
|---11--11--11--11--11--11--11--11--11--11--11--11--11--11--11--11-| 
|-12----------12--12----------12--12----------12-------------------|
|------------------------------------------------------------------|x4
|
|
|Guitar 2
|----------------------------------------------------|
|----------------------------------------------------|
|----------------------------------------------------|
|-0--------2----4--------7----0--------4----2--------|
|-0--------2----4--------7----0--------4----2--------|
|-0--------2----4--------7----0--------4----2--------|x4



|------------------------------------------------------------|
|------------------------------------------------------------|
|--7----7/8------------8/10-5/8-7----7/8--------7\5-5\3-3\2--|
|--7----7/8------------8/10-5/8-7----7/8--------7\5-5\3-3\2--|
|--5----5/6------------6/8--3/6-5----5/6--------5\3-3\1-1\0--|
|---0000---000000000000----------0000---00000000-------------|X4
PM  ....   ............          ....   ........



|-----------------------------------|
|-----------------------------------|
|-----------------------------------|       
|--1---2---4p3-2-0-2p1-0-0-11111111-|   
|--1-0-2-0-4p3-2-0-2p1-0-0-11111111-|       
|--1-0-2-0-4p3-2-0-2p1-0-0-11111111-|        
PM   .   .       .     . . ........


                            x3                            4th time
|-----------------------------|-----------------------------------|
|-----------------------------|-----------------------------------|
|-----------------------------|-----------------------------------|
|-----------------------------|-----------------------------------|
|--0-0-0--0-00000-0-0--0-0-0--|--0-0-0--0-00000--0--0----0--0--0--|
|--0-0-0--0-00000-0-0--0-0-0--|--0-0-0--0-00000--0--0----0--0--0--|
PM . . .  . ..... . .  . . .     . . .  . .....  .  .    .  .  .



|------------------------------|------------------------------|
|------------------------------|------------------------------|
|--------7\--------------------|--------8\--------------------|
|--------7\--------------------|--------8\--------------------|
|--0-0-0-5\--00000-0-0--0-0-0--|--0-0-0-6\--00000-0-0--0-0-0--|
|--0-0-0-----00000-0-0--0-0-0--|--0-0-0-----00000-0-0--0-0-0--|
PM . . .     ..... . .  . . .     . . .     ..... . .  . . .



|------------------------------|-----------------------|
|------------------------------|-----------------------|
|--------7\--------------------|--------8\-------------|
|--------7\--------------------|--------8\-------------|
|--0-0-0-5\--00000-0-0--0-0-0--|--0-0-0-6\--00000-0-0--|
|--0-0-0-----00000-0-0--0-0-0--|--0-0-0-----00000-0-0--|
PM . . .     ..... . .  . . .     . . .     ..... . .
            
Tabs too difficult? Try these video lessons and learn fast.




comments powered by Disqus
↑ Back to top | Tablatures and chords are parodies/interpretations of the original songs. You may use it for private study, scholarship, research or language learning purposes only