>
 >
No More 2nd Chances

No More 2nd Chances Guitar Tabs

Caliban - No More 2nd Chances chords, tabs, tablatures, lyrics

Guitar lessons | Add/correct | Request | Top 50 tabs Artists:  A B C D E F G H I J K L M N O P Q R S T U V W X Y Z 0-9

No More 2nd Chances Guitar Tabs – Caliban

CD, Sheet music, Poster

Do you like No More 2nd Chances? Share with your friends now
Tabs
Artist - Caliban
Album - The Undying Darkness
Song - No More 2nd Chances

Tuning - Drop C  CGCFAD


/ - Slide up    \ - Slide down
. - Palm mute   h - hammer on


Intro sounds like 3 guitars. Guitar 2 with wah.

 Guitar 1
|--------------------------------------------------|
|--------------------------------------------------|
|--------------------------------------------------|
|-0-----8--5--0-----8--5--1-----7-----0------------|
|-0-----8--5--0-----8--5--1-----7-----0------------|
|-0-----8--5--0-----8--5--1-----7-----0------------|x3
|
|                             
|Guitar 2                       end 1     end 2   end 3
|--------------------------|---------|---------|-------|
|--------------------------|-6---5---|-8---6---|-------|
|--7---7---7---7---5---5---|---------|---------|--5/7--|
|----7---7---7---7---7---7-|---7---7-|---7---7-|-------|
|--------------------------|---------|---------|-------|
|--------------------------|---------|---------|-------|x9
|Play 9 times in all.
|Play end 2 on the 6th time and end 1 all other times.
|Play end 3 after end 1 on the last time.
|
|
|Guitar 3
|---------------------------------------------------|
|---------------------------------------------------|
|--7---7---7---7---5---5----------------------------|
|----7---7---7---7---7---7-5-7-5-7------------------|
|---------------------------------------------------|
|---------------------------------------------------|x9



|---------------------------------------------------|
|---------------------------------------------------|    
|---------------------------------------------------|    
|---------------------------------------------------|   
|--0h3h5---------------0h5h6---0h6h8---0h3h5-0h5h6--|
|--------000000000000--------0-------0--------------|
 PM      ............        .       .



|---------------------------------------------|
|---------------------------------------------|    
|---------------------------------------------|    
|---------------------------------------------|   
|----------------0h5h6---0h6h8---0h3h5-0h5h6--|
|--000000000000--------0-------0--------------|x6
 PM............        .       .



|---------------------------------------------|
|---------------------------------------------|Plays over the
|---------------------------------------------|second time
|----------------------Pick Scrape------------|
|-7-----8-----0-----\\\\\\\\\\\\\\\\\\--------|
|-7-----8-----0-----\\\\\\\\\\\\\\\\\\--------|



|---------------------------------------------|
|---------------------------------------------|    
|---------------------------------------------|    
|---------------------------------------------|   
|----------------0h5h6---0h6h8---0h3h5--------|
|--000000000000--------0-------0--------------|
 PM............        .       .



|--------------------------------------|
|--------------------------------------|    
|--7-----------8---7---8---10----------|    
|--7-----------8---7---8---10----------|   
|--5-0-0-0-0-0-6---5---6---8-----------|
|----0-0-0-0-0---0---0---0----0-0------|x2
 PM  . . . . .   .   .   .    . .



 Guitar 1
|-------------------------------------------------------------|
|-------------------------------------------------------------|    
|--7-----------8---7---8---10-----7-----------8---7---5---7---|    
|--7-----------8---7---8---10-----7-----------8---7---5---7---|   
|--5------------------------------5---------------------------|
|--6-6-6-6-6-6---6---6---6----6-6-5-5-5-5-5-5---5---5---5---5-|
|PM  . . . . .   .   .   .    . .   . . . . .   .   .   .   .
|
|Guitar 2 - With wah
|---------------------------------------------------|
|---------------------------------------------------|    
|---------------------------------------------------|    
|--77777777777777777777777777777777777777777777777--|   
|---------------------------------------------------|
|---------------------------------------------------|



|---------------------------------------------------|
|---------------------------------------------------|    
|---------------------------------------------------|    
|---------------------------------------------------|   
|--0h3h5---------------0h5h6---0h6h8---0h3h5-0h5h6--|
|--------000000000000--------0-------0--------------|
 PM      ............        .       .



|---------------------------------------------|
|---------------------------------------------|    
|---------------------------------------------|    
|---------------------------------------------|   
|----------------0h5h6---0h6h8---0h3h5-0h5h6--|
|--000000000000--------0-------0--------------|x2
 PM............        .       .



|---------------------------------------------|
|---------------------------------------------|    
|---------------------------------------------|    
|---------------------------------------------|   
|----------------0h5h6---0h6h8---0h3h5--------|
|--000000000000--------0-------0--------------|
 PM............        .       .



|--------------------------------------|
|--------------------------------------|    
|--7-----------8---7---8---10----------|    
|--7-----------8---7---8---10----------|   
|--5-0-0-0-0-0-6---5---6---8-----------|
|----0-0-0-0-0---0---0---0----0-0------|x2
 PM  . . . . .   .   .   .    . .



 Guitar 1
|--------------------------------------------------------|
|--------------------------------------------------------|    
|--7-----------8---7---8---10-----7-----------8---7---5--|    
|--7-----------8---7---8---10-----7-----------8---7---5--|   
|--5------------------------------5----------------------|
|--6-6-6-6-6-6---6---6---6----6-6-5-5-5-5-5-5---5---5----|
|PM  . . . . .   .   .   .    . .   . . . . .   .   .
|
|Guitar 2 - With wah
|---------------------------------------------------|
|---------------------------------------------------|    
|---------------------------------------------------|    
|--77777777777777777777777777777777777777777777777--|   
|---------------------------------------------------|
|---------------------------------------------------|



|------------------------------------------------|
|------------------------------------------------|
|------------------------------------------------|
|--4-----0---4-5---0----4-----0---4-5------------|
|--4-----0---4-5---0----4-----0---4-5------------|
|--4-0-0-0-0-4-5-0-0----4-0-0-0-0-4-5-0-000-111--|
|PM  . .   .     .        . .   .     . ... ...
|
|----------------------------------------------------|
|----------------------------------------------------|
|----------------------------------------------------|
|--4-----0---4-5---0----4-----0---4-5----------------|
|--4-----0---4-5---0----4-----0---4-5----------------|
|--4-0-0-0-0-4-5-0-0----4-0-0-0-0-4-5-0-000-111-444--| x2
 PM  . .   .     .        . .   .     . ... ... ...



|--------------------------------------|
|--------------------------------------|    
|--7-----------8---7---8---10----------|    
|--7-----------8---7---8---10----------|   
|--5-0-0-0-0-0-6---5---6---8-----------|
|----0-0-0-0-0---0---0---0----0-0------|x2
 PM  . . . . .   .   .   .    . .



 Guitar 1
|--------------------------------------------------------|
|--------------------------------------------------------|    
|--7-----------8---7---8---10-----7-----------8---7---5--|    
|--7-----------8---7---8---10-----7-----------8---7---5--|   
|--5------------------------------5----------------------|
|--6-6-6-6-6-6---6---6---6----6-6-5-5-5-5-5-5---5---5----|
|PM  . . . . .   .   .   .    . .   . . . . .   .   .
|
|Guitar 2 - With wah
|---------------------------------------------------|
|---------------------------------------------------|    
|---------------------------------------------------|    
|--77777777777777777777777777777777777777777777777--|   
|---------------------------------------------------|
|---------------------------------------------------|



 Guitar 1
|---------------------------------------------------------------|
|---------------------------------------------------------------|    
|---------------------------------------------------------------|    
|--0------------------------------------------------------------|   
|--0----------------------------------------------5-------------|
|--0--------------------------------------------0----6--5--6--5-|
|
|Guitar 2
|---------------------------------------------------------------|
|---------------------------------------------------------------|    
|--8-------------8---4--------------8---------------------------|    
|--8-------------8---4--------------8---------------------------|   
|--6-------------6---2--------------6-------------5-------------|
|----0-0-0-110-0---0---0-0-111-444----0-0-0-110-0----6--5--6--5-|
 PM  . . . ... .   .   . . ... ...    . . . ... .




|-------------------------------------------------------------------|
|-------------------------------------------------------------------|    
|--8-------------8---4--------------8-------------------------------|    
|--8-------------8---4--------------8--------------8----------------|   
|--6-------------6---2--------------6--------------6--5-5-----------|
|----0-0-0-110-0---0---0-0-111-444----0-0-0-110-0---------6-6-5-5-6-|x3
 PM  . . . ... .   .   . . ... ...    . . . ... .



|------------------------------------------------|
|------------------------------------------------|
|------------------------------------------------|
|--4-----0---4-5---0----4-----0---4-5------------|
|--4-----0---4-5---0----4-----0---4-5------------|
|--4-0-0-0-0-4-5-0-0----4-0-0-0-0-4-5-0-000-111--|
|PM  . .   .     .        . .   .     . ... ...
|
|----------------------------------------------------|
|----------------------------------------------------|
|----------------------------------------------------|
|--4-----0---4-5---0----4-----0---4-5----------------|
|--4-----0---4-5---0----4-----0---4-5----------------|
|--4-0-0-0-0-4-5-0-0----4-0-0-0-0-4-5-0-000-111-444--| x2
 PM  . .   .     .        . .   .     . ... ... ...



|---------------------------------------------------|
|---------------------------------------------------|    
|---------------------------------------------------|    
|---------------------------------------------------|   
|--0h3h5---------------0h5h6---0h6h8---0h3h5-0h5h6--|
|--------000000000000--------0-------0--------------|
 PM      ............        .       .



|---------------------------------------------|
|---------------------------------------------|    
|---------------------------------------------|    
|---------------------------------------------|   
|----------------0h5h6---0h6h8---0h3h5-0h5h6--|
|--000000000000--------0-------0--------------|x2
 PM............        .       .



|---------------------------------------------|
|---------------------------------------------|Plays over the
|---------------------------------------------|second time
|---------------------------------------------|
|-7-----8-----0-------------------------------|
|-7-----8-----0-------------------------------|



|---------------------------------------------|
|---------------------------------------------|    
|---------------------------------------------|    
|--------------------Pick Scrape--------------|   
|-----------------\\\\\\\\\\\\\\\\\\----------|
|--000000000000---\\\\\\\\\\\\\\\\\\----------|
 PM............



|---------------------------------------------------|
|---------------------------------------------------|    
|---------------------------------------------------|    
|---------------------------------------------------|   
|--0h3h5---------------0h5h6---0h6h8---0h3h5-0h5h6--|
|--------000000000000--------0-------0--------------|
 PM      ............        .       .



|---------------------------------------------|
|---------------------------------------------|    
|---------------------------------------------|    
|---------------------------------------------|   
|----------------0h5h6---0h6h8---0h3h5-0h5h6--|
|--000000000000--------0-------0--------------|x2
 PM............        .       .



|---------------------------------------------|
|---------------------------------------------|    
|---------------------------------------------|    
|---------------------------------------------|   
|----------------0h5h6---0h6h8---0h3h5--------|
|--000000000000--------0-------0--------------|
 PM............        .       .



|--------------------------------------|
|--------------------------------------|    
|--7-----------8---7---8---10----------|    
|--7-----------8---7---8---10----------|   
|--5-0-0-0-0-0-6---5---6---8-----------|
|----0-0-0-0-0---0---0---0----0-0------|x2
 PM  . . . . .   .   .   .    . .



On the recording the last 3 notes are split between two guitars,
one playing C string and one playing F string.
Sounds a bit better that way.
|------------------------------------------------------------|
|------------------------------------------------------------|    
|--7-----------8---7---8---10-----7-----------8---7---5h7-5~-|    
|--7-----------8---7---8---10-----7-----------8---7---5h7-5~-|   
|--5------------------------------5--------------------------|
|--6-6-6-6-6-6---6---6---6----6-6-5-5-5-5-5-5---5---5--------|
|PM  . . . . .   .   .   .    . .   . . . . .   .   .
|
|Guitar 2 - With wah
|---------------------------------------------------|
|---------------------------------------------------|    
|---------------------------------------------------|    
|--77777777777777777777777777777777777777777777777--|   
|---------------------------------------------------|
|---------------------------------------------------|



|------------------------------------------------|
|------------------------------------------------|
|------------------------------------------------|
|--4-----0---4-5---0----4-----0---4-5------------|
|--4-----0---4-5---0----4-----0---4-5------------|
|--4-0-0-0-0-4-5-0-0----4-0-0-0-0-4-5-0-000-111--|
|PM  . .   .     .        . .   .     . ... ...
|
|----------------------------------------------------|
|----------------------------------------------------|
|----------------------------------------------------|
|--4-----0---4-5---0----4-----0---4-5----------------|
|--4-----0---4-5---0----4-----0---4-5----------------|
|--4-0-0-0-0-4-5-0-0----4-0-0-0-0-4-5-0-000-111-444--| x2
 PM  . .   .     .        . .   .     . ... ... ...



|-----|
|-----|
|-----|
|--0--|
|--0--|
|--0--|





Comments


Popular Caliban tabs & chords
It's Our Burden To Bleed Bass Tabs
Nothing Is Forever 2 Bass Tabs
Tyranny Of Small Misery Bass Tabs
It's Our Burden To Bleed 1 Tabs
Memorial Tabs
No One Is Safe Tabs
Rise And Fight Intro Tabs
Salvation Tabs
Scream From The Abyss Tabs
Stand Up Tabs


Song lyrics



↑ Back to top | Tablatures and chords are parodies/interpretations of the original songs. You may use it for private study, scholarship, research or language learning purposes only
© 2014 AZChords.com Contact us | Privacy policy | DMCA | Add/correct tabs | Request tabs | Top 50 tabs