» » »

Caliban, My Time Has Come Tabs (ver.1)

Artists:  A B C D E F G H I J K L M N O P Q R S T U V W X Y Z # 

My Time Has Come Tabs (ver.1)

Caliban Tabs
Rating:
0/5 (0 votes)
My Time Has Come lessons Tabs too difficult? Try these video lessons and learn fast
                
Tuning: Drop B (BF#BEG#C# - Low to High)

Intro - Main Riff

C#|------------------------------------------------------------|
G#|------------------------------------------------------------|
 E|------------------------------------------------------------|
 B|---------------------------------------10-7-----------------|
F#|-----8-7-8------8-5-7-----8-7-8------8----------------------|
 B|-000--------000-------000--------000------------------------|


C#|------------------------------------------------------------|
G#|------------------------------------------------------------|
 E|------------------------------------------------------------|
 B|-------------------------------------------9^---------------|
F#|-----8-7-8------8-5-7-----8-7-8------8--7-------------------|
 B|-000--------000-------000--------000-8--7-------------------|


Pre Chorus (This Darkness...)

C#|------------------------------------------------------------|
G#|------------------------------------------------------------|
 E|--------777---------999---------101010--------121212--------|
 B|-0-0-0-------0-0-0-------0-0-0---------0-0-0----------------|
F#|-0-0-0--555--0-0-0--777--0-0-0--8-8-8--0-0-0--101010--------|
 B|-0-0-0-------0-0-0-------0-0-0---------0-0-0----------------|

Chorus (You Gave Me....)

C#|------------------------------------------------------------|
G#|-11-----------11--------------------------------------------|
 E|-10-----------10--------------------------------------------|
 B|-8------------7---------------------------------------------|
F#|-8------------7---------------------------------------------|
 B|-8------------7---------------------------------------------|

Post Chorus (Mercy is for the Merciless)

C#|------------------------------------------------------------|
G#|------------------------------------------------------------|
 E|------------------------------------------------------------|
 B|------------------------------------------------------------|
F#|-00000---------(It's hard to put in the timing for this bit-|
 B|-00000---12\0---Listen to the song to get the feel of it)---|


Bridge (Soft Part - Your time is gone)

C#|------------------------------------------------------------|
G#|-----3------------------------------------------------------|
 E|---2---2------(Repeat for whole bridge)---------------------|
 B|-0-------0--------------------------------------------------|
F#|------------------------------------------------------------|
 B|------------------------------------------------------------|

End of Bridge

C#|------------------------------------------------------------|
G#|------------------------------------------------------------|
 E|------------------------------------------------------------|
 B|-7-7-7-7-7-7-7-7-7-7-7-7-7-7-7-7----------------------------|
F#|-7-7-7-7-7-7-7-7-7-7-7-7-7-7-7-7----------------------------|
 B|-7-7-7-7-7-7-7-7-7-7-7-7-7-7-7-7----------------------------|
    (Palm Mute and slowly strum harder and release mute)

Last Chord

C#|------------------------------------------------------------|
G#|------------------------------------------------------------|
 E|------------------------------------------------------------|
 B|-0----------------------------------------------------------|
F#|-0---
            
Submit corrections

comments powered by Disqus
↑ Back to top | Caliban Tabs for My Time Has Come. Lyrics for acoustic guitar and electric guitar. Tablatures and chords are parodies/interpretations of the original songs. You may use it for private study, scholarship, research or language learning purposes only