» » »

Caliban, Entrance Tabs (ver.1)

Artists:  A B C D E F G H I J K L M N O P Q R S T U V W X Y Z # 

Entrance Tabs (ver.1)

Caliban Tabs
 Rating:
4/5 (4 votes)
Entrance lessons Tabs too difficult? Try these video lessons and learn fast
1
                Band:  (Caliban)

Copyright (c)  (Roadrunner Rcords) (2001)
Version 1.0 - (09th.Nov.2004)



.  - palm mute           /  - slide up to
\  - slide down to       ~  - vibrato
h  - hammer on           b  - Bend
p  - pull off            Suffixes for bend
t  - tap                 f  - full bend    h - half bend
ph - pinched harmonic    q  - quarter bend t - tap bend
*  - see comment         ^  - Hold bend    r release bend
x  - Stuccatto           ~  - vibrato bend
,  - slight palm mute    () - ghost note, sustained note
"  - tremolo note        <> - Trill

Tunning D A F C G A

Clean

Riff 1

D||------|--------0-----------0-----|--------0-----------0-----|
A||------|--5--------0--5--------0--|--3--------0--3--------0--|
F||------|-----5-----------5--------|-----4-----------4--------|
C||------|--------------------------|--------------------------|
G||------|--------------------------|--------------------------|
D||------|--------------------------|--------------------------|

                              _______________
                              |1

D||--------0-----------0-----|--------0-----------0-----|
A||--6--------0--6--------0--|--5--------0--5--------0--|
F||-----5-----------5--------|-----5-----------5--------|
C||--------------------------|--------------------------|
G||--------------------------|--------------------------|
D||--------------------------|--------------------------|

    _________________
    |2
                    let ring
D||--------0-----------------|
A||--5--------0--5-----------|
F||-----5-----------5--------|
C||--------------------------|
G||--------------------------|
D||--------------------------|



Riff 2 (Under solo)

D||--------0-----------0-----|--------0-----------0-----|
A||--5--------0--3--------0--|--6--------0--6--------0--|
F||-----5-----------4--------|-----5-----------5--------|
C||--------------------------|--------------------------|
G||--------------------------|--------------------------|
D||--------------------------|--------------------------|




D||--------0-----------0-----|--------0-----------0-----|
A||--5--------0--5--------0--|--5--------0--3--------0--|
F||-----5-----------5--------|-----5-----------4--------|
C||--------------------------|--------------------------|
G||--------------------------|--------------------------|
D||--------------------------|--------------------------|


Distortion

Solo

D||-------------------------|---------------------------|
A||-------------------------|---------------------------|
F||-/9------9-10-7------7-9-|--10------9-10-9------9-10-|
C||-------------------------|---------------------------|
G||-------------------------|---------------------------|
D||-------------------------|---------------------------|


D||--------------------------------|------------------------------|
A||--------------------------------|------------------------------|
F||--9------9-10-17----16----14----|--16----14----12----14--------|
C||--------------------------------|------------------------------|
G||--------------------------------|------------------------------|
D||--------------------------------|------------------------------|



D||--------------------------------------------------|
A||-----17-15-13-15h13p15-13-12-13-17--13-12---------|
F||--14--------------------------------------12--12/-|
C||--------------------------------------------------|
G||--------------------------------------------------|
D||--------------------------------------------------|



D||--------------------------------------------------|
A||-----17-15-13-15h13h15-13-12-13-20--13-12---------|
F||--14--------------------------------------12--12--|
C||--------------------------------------------------|
G||--------------------------------------------------|
D||--------------------------------------------------|



D||-----------------------------------------------|
A||----15h17---13h15---13p12---18---17---15h17p15-|
F||--0-------0-------0-------0----0----0----------|
C||-----------------------------------------------|
G||-----------------------------------------------|
D||-----------------------------------------------|



D||-----------------------------------------|
A||----13h15---13p12---13---12---10---8p10--|
F||--0-------0-------0----0----0----0-------|
C||-----------------------------------------|
G||-----------------------------------------|
D||-----------------------------------------|

D||-----------------------------------|
A||-----------------------------------|
F||-----------7---------9~-7----------|
C||--9-7-9-10---10-9-10------10-9/-10-|
G||-----------------------------------|
D||-----------------------------------|




D||--------------------------------------|
A||--------------------------------------|
F||-----------7---------10~-9-10-12--10--|
C||--9-7-9-10---10-9-10------------------|
G||--------------------------------------|
D||--------------------------------------|

D||--------------------------------------|
A||----13p12---10h12---8---10---8---6p5/-|
F||--0-------0-------0---0----0---0------|
C||--------------------------------------|
G||--------------------------------------|
D||--------------------------------------|



D||--------------------------------------|
A||--15----13----12/---17----15----10----|
F||--------------------------------------|
C||--------------------------------------|
G||--------------------------------------|
D||--------------------------------------|



D||--------------------------------------------------------------------------|
A||--17p15p13-17p15p13-17p15p13-17p15p13-15p13p12-15p13p12-15p13p12-15p13p12-|
F||--------------------------------------------------------------------------|
C||--------------------------------------------------------------------------|
G||--------------------------------------------------------------------------|
D||--------------------------------------------------------------------------|



D||--------------------------------------------------------------------------|
A||--18p17p15-18p17p15-18p17p15-18p17p15-17p15p13-17p15p13-17p15p13-17p15p13-|
F||--------------------------------------------------------------------------|
C||--------------------------------------------------------------------------|
G||--------------------------------------------------------------------------|
D||--------------------------------------------------------------------------|



D||--------------------------------------------------------------------------|
A||--17p15p13-17p15p13-17p15p13-17p15p13-15p13p12-15p13p12-15p13p12-15p13p12-|
F||--------------------------------------------------------------------------|
C||--------------------------------------------------------------------------|
G||--------------------------------------------------------------------------|
D||--------------------------------------------------------------------------|

                                    let ring
D||---------------------------------------|
A||--12p10p8-12p10p8-12p10p8p8--10--------|
F||---------------------------------------|
C||---------------------------------------|
G||---------------------------------------|
D||---------------------------------------|



END
            
Submit corrections

comments powered by Disqus
↑ Back to top | Caliban Tabs for Entrance. Lyrics for acoustic guitar and electric guitar. 1 Tablatures and chords are parodies/interpretations of the original songs. You may use it for private study, scholarship, research or language learning purposes only