>
 >
La Bestia Humana

La Bestia Humana Bass Tabs

Caifanes - La Bestia Humana chords, tabs, tablatures, lyrics

Guitar lessons | Add/correct | Request | Top 50 tabs Artists:  A B C D E F G H I J K L M N O P Q R S T U V W X Y Z 0-9

La Bestia Humana Bass Tabs – Caifanes

CD, Sheet music, Poster

Do you like La Bestia Humana? Share with your friends now
Bass TabsChordsUkulele
-------------------------------------------------------------------------------
-------------------------------------------------------------------------------


Tuning: standard EADG

No bass under the intro...

G|-----------|
D|-----------|
A|-----------|
E|-5--3-5-5--|

Verse 1:
G|-------------------------------------|
D|----------------------------------10-|
A|-------------------------------------|x2
E|-0--0----3-5---7-0--0----3--5-7-8----|

G|-----------------------------------------------------------------4/10------|
D|-------------------------------5-------------------------------------------|
A|---------5-----5---------5---5---5---------5-----5---------5---5-----------|
E|-7--7--7---3-----7--7--7---3-------7--7--7---3-----7--7--7---3-------------|

Verse 2:
G|-------------------------------------|
D|----------------------------------10-|
A|-------------------------------------|x2
E|-0--0----3-5---7-0--0----3--5-7-8----|

G|-----------------------------------------------------------------4/10------|
D|-------------------------------5-------------------------------------------|
A|---------5-----5---------5---5---5---------5-----5---------5---5-----------|
E|-7--7--7---3-----7--7--7---3-------7--7--7---3-----7--7--7---3-------------|

Bridge:
G|----------------------------------------------------|
D|----------------------------------------------------|
A|----------5/7------------5/7------------------------|
E|-0--0--0------0--0--0-0------0--0--0-0----0--0--0-0-|

G|--------------------------------------------------------------|
D|-------------------------------------------------5------7---9-|
A|------------5/7------------5/7------------5/7-----------------|
E|-0--0--0-0------0--0--0-0------0--0--0-0------3-----3-5---7---|

Verse 3:
G|-------------------------------------|
D|----------------------------------10-|
A|-------------------------------------|x2
E|-0--0----3-5---7-0--0----3--5-7-8----|

G|---------------------------------------------------------------------------|
D|-------------------------------5-----------------------------------7-------|
A|---------5-----5---------5---5---5---------5-----5----------5-----7--------|
E|-7--7------3-----7-7--7----3-------7--7------3-----7-7--7-----3------------|

Verse 4:
G|-------------------------------------|
D|----------------------------------10-|
A|-------------------------------------|x2
E|-0--0----3-5---7-0--0----3--5-7-8----|

G|---------------------------------------------------------------------------|
D|-------------------------------5-------------------------------------------|
A|---------5-----5---------5---5---5---------5-----5----------5--------------|
E|-7--7------3-----7-7--7----3-------7--7------3-----7-7--7-----3--5---------|

Chorus (don't slap until the 2nd 3 on E-string):
G|-------------------------------------------4---4--7\-|
D|-----------------------------------------------------|
A|--------------------------------------2--2---2-------|
E|-5----6----1----3----5----6----1----3----------------|

Verse 5:
G|-------------------------------------|
D|----------------------------------10-|
A|-------------------------------------|x2
E|-0--0----3-5---7-0--0----3--5-7-8----|

G|--------------------------------------------------------------------4--10\-|
D|-------------------------------5-------------------------------------------|
A|---------5-----5---------5---5---5---------5-----5----------5----2---------|
E|-7--7------3-----7-7--7----3-------7--7------3-----7-7--7-----3------------|

Verse 6:
G|-------------------------------------|
D|----------------------------------10-|
A|-------------------------------------|x2
E|-0--0----3-5---7-0--0----3--5-7-8----|

G|---------------------------------------------------------------------------|
D|---------------------------------------------------------------------------|
A|---------5-----5---------5----5\-----------5-----5----------5--------------|
E|-7--7------3-----7-7--7----3-------7--7------3-------7--7-----3--6---------|

Chorus (don't slap):
G|-------------------------------------------------------------|
D|-------------------------------------------------------------|
A|------------------------------------/8---10-10--10--10h12-10-|
E|-5----6----1----3----5----6----1-----------------------------|

(start slapping again)
G|---------------------------------------------------------------------------|
D|-----------7-5------------5/8------------3-5-3-----------7---5-------------|
A|---------------7-----------------------------------------------------------|
E|-5--5--5---------6--6--6-------1--1--1-1-------3--3--3-5---3---------------|

G|---------------------------------------------------------------------------|
D|-----------7-5------------5/8------------3-5-3---------5/7-----------------|
A|---------------7--------------------------------------------5--------------|
E|-5--5--5---------6--6--6-------1--1--1-1-------3--3--3---------------------|

Solo, outro:
G|---------------------------------------------------------------------------|
D|---------------------------------------------------------------------------|
A|---------------------------------------------------------------------------|
E|-5-5--5--5----5--5--5----5-2--2--2----2--2--2------------------------------|

G|---------------------------------------------------------------------------|
D|--------------------------------------4--2---------------------------------|
A|--------------------------------------------5--4--2------------------------|
E|-2-5--5--5----5--5--5----5-2--2--2-----------------------------------------|

G|-------------------------------------------------------------------------|
D|--------------------------------------2/4--2-----------------------------|
A|-------4----------4---------------------------5--4--2--------------------|x3
E|-5--7-------5--7-----7--5----2--4--5-------------------------------------|

G|---------------------------------------------------------------------------|
D|---------------------------------------------------------------------------|
A|-------4----------4--------------------------------------------------------|
E|-5--7-------5--7-----7--5----2--4--5----2-2-2-2--2-2-2-2-------------------|

===============================================================================
Notes: 

Yeah, you have to slap through the whole song, except a couple of parts, where
I noted.

If You have problems with this tab, write Me a mail what's wrong with it
instead of giving it a bad rating! It'd be better for everyone! Thx!


| /  slide up
| \  slide down
| h  hammer-on
| p  pull-off
| ~  vibrato
| +  harmonic
| x  Mute note
===============================================================================





Comments


Popular Caifanes tabs & chords
La Negra Tomasa Bass Tabs
Dioses Ocultos Chords
Ayer Me Dijo Un Ave 2 Tabs
Dioses Ocultos Tabs
El Comunicador Tabs
La Celula Que Explota 1 Tabs
Perdi Mi Ojo De Venado Tabs
Sombras Tiempos Perdidos Tabs
Songbook Tabs
La Bestia Humana Ukulele


Song lyrics



↑ Back to top | Tablatures and chords are parodies/interpretations of the original songs. You may use it for private study, scholarship, research or language learning purposes only
© 2014 AZChords.com Contact us | Privacy policy | DMCA | Add/correct tabs | Request tabs | Top 50 tabs