» » »

Debajo De Tu Piel Bass tabs (ver.1)

Artists:  A B C D E F G H I J K L M N O P Q R S T U V W X Y Z # 

Debajo De Tu Piel Bass tabs (ver.1)

Caifanes
Rating:
0/5 (0 votes)

Hard to play? Try these video lessons and learn fast.
                Si pudiera...
  A             
G|------------|----14-16---|------------|------14-16----|
D|------------|------------|------------|---------------|
A|0-----------|0-0------12s|0-0---0-0-0-|0-0-12-----12s5|
E|------------|------------|------------|---------------|

  G                          A   
G|-------------|------------|------14-16-18|-----14-16-14|
D|----5--------|----5-------|--------------|---14--------|
A|-------------|------------|0-0-12--------|x-0----------|
E|3--3-3-3-----|3--3-3------|--------------|-------------|

  Abajo de tu piel...
  F             Em
G|----5------5-|----4-7s9-7-------||
D|3--3---3--3--|2--2-------10-7-5-||  Dos veces
A|-3------3----|-2----------------||
E|-------------|------------------||

  Intro...
  A
G|------14-16-18-|
D|----14---------|  Cuatro veces
A|0-12-----------|
E|---------------|

  Ven...
  A                                G
G|--------------------------------|--------------|
D|--------------------------------|----5-------5-|
A|0-0--00-12-14-16-0-0-00-12-14-12|--------------|
E|--------------------------------|3--3-3--3—-3-3|
 |........ Dos veces .............|

  A                                G
G|--------------------------------|--------------|
D|--------------------------------|----5-------5-|
A|0-0-00-12-14-16--0-0-00-12-14-12|--------------|
E|--------------------------------|3--3-3--3--3-3|


  A
G|----------------------------------|
D|----------------------------------|
A|0-0-00-12-14-16--0-0-0-12s16s14-12|
E|----------------------------------|

  Repite el coro igual...

Ah ah ah va igual que el coro solo lleva una pequeña variación...

  F            Em 
G|----5------5|----4-9-7h9-9-7-|
D|3--3---3--3-|2--2------------|
A|-3------3---|-2--------------|
E|------------|----------------|
            
Hard to play? Try these video lessons and learn fast. | Correct




comments powered by Disqus
↑ Back to top | Tablatures and chords are parodies/interpretations of the original songs. You may use it for private study, scholarship, research or language learning purposes only