» » »

Cage The Elephant, Around My Head Tabs (ver.1)

Artists:  A B C D E F G H I J K L M N O P Q R S T U V W X Y Z # 

Around My Head Tabs (ver.1)

Cage The Elephant Tabs
 Rating:
4/5 (9 votes)
Around My Head lessons Tabs too difficult? Try these video lessons and learn fast
                This is my first Tab so be easy on me. I am open to recamendations on how to make the 
tab better. I was sick of there not being a guitar tab so I decided to make my own. the 
timing isn't right so just listen to the ssong when you play.


Intro:
Rhy, fig. 1
e|--2----2-2------------------2----2-2---------------------------------|
B|--3----3-3-----2----2-2-----3----3-3-----2---------------------------|
G|--2----2-2-----2----2-2-----2----2-2-----2---------------------------| X2
D|--0----0-0-----2----2-2-----0----0-0-----2---------------------------|
A|---------------0----0-0------------------0---------------------------|
E|---------------------------------------------------------------------|


with Rhy, fig. 1
|----------------------------------------------------------------------|
|--------7-------------2-------------7-----------2---------------------|
|----------7-------------2------------7--------------------------------|X2
|---7--------------2-------------7------------2------------------------|
|--5-------------0-------------5------------0--------------------------|
|----------------------------------------------------------------------|

Verse:
they're is a really odd pattern to the strumming so listen to the song to get it down

|---2-----------2-----------2-----------2-------------------------------|
|---3-----2-----3-----2-----3-----2-----3-----12------------------------|
|---2-----2-----2-----2-----2-----2-----2-----12------------------------| X2
|---0-----2-----0-----2-----0-----2-----0-----12------------------------|
|---------0-----------0-----------0-----------10------------------------|
|-----------------------------------------------------------------------|


Fill 1. only durring the second verse
|---------------------------------------------------------------------|
|---------------------------------------------------------------------|
|---------------------------------------------------------------------|
|---------------------------------------------------------------------|
|----------------------------------------------7~~~~~~~~~~~~~~--------|
|---------------------------------------------------------------------|

Pre Chorus:
|----------------------------------------------------------------------|
|----------------------------------------------------------------------|
|--7--7--7--7--11--11--11--11--7--7--7--7--11--11--11--11--------------|
|----------------------------------------------------------------------|
|----------------------------------------------------------------------|
|----------------------------------------------------------------------|
   oo oo oo oo  ah  ah  ah ah  oo oo oo oo  ah  ah  ah  ah

Chorus:listen to song for strum patterns
Guitar 2
|---------------------------------------|
|--7-------2----------------------------|
|--7-------2----------------------------|X4
|--7-------2------4----5----------------|
|--5-------0------4----5----------------|
|-----------------2----3----------------|

Guitar 1
|-----------------------------------------------------------------------|
|-------7---------2-----------11------12--------------------------------|
|--------7----------2------------11-----12---12-------------------------|
|----7---------2-----------11-------------12----------------------------|
|--5---------0-----------9----------------------------------------------|
|-----------------------------------------------------------------------|

|-----------------------------------------------------------------------|
|-------7----------2-----11----12---------------------------------------|
|--------7----------2----11----12---------------------------------------|
|----7----------2--------11----12---------------------------------------|X2
|--5----------0----------9-----10---------------------------------------|
|-----------------------------------------------------------------------|

Intro
Verse
Chorus
Bridge:
Guitar 2
|--------------------------------|
|--------------------------------|
|--------------------------------|
|-4-4-4-4-4-4-4-5-5-5-5-5-5-5-5--| X3
|-4-4-4-4-4-4-4-5-5-5-5-5-5-5-5--|
|-2-2-2-2-2-2-2-3-3-3-3-3-3-3-3--|

Guitar 1
|----------------------------------|
|---------------------14b~~~~~-----|
|----------------------------------| X3
|----------------------------------|
|----------------------------------|
|----------------------------------|

|------------------------------------|
|------------------------------------|
|------------------------------------|
|-4-4-4-4-4-4-4-4--5--55--55--55--54-|
|-4-4-4-4-4-4-4-4--5--55--55--55--54-|
|-2-2-2-2-2-2-2-2--3--33--33--33--32-|

Chorus

Outro:
Play just the second guitar and Guitar 1 plays this

|-------------------------------------|
|-------------------------------------|
|-7b~~~~~~~~~~~~~~~~~~~~~-------------|
|-------------------------------------| X3
|-------------------------------------|
|-------------------------------------|

Strike the note various times through out bend

Play pre-chorus X4

Hope you like it <(")
            
Submit corrections

comments powered by Disqus
↑ Back to top | Cage The Elephant Tabs for Around My Head. Lyrics for acoustic guitar and electric guitar. Tablatures and chords are parodies/interpretations of the original songs. You may use it for private study, scholarship, research or language learning purposes only