>
 >
Sort It Out

Sort It Out Guitar Tabs

Caesars - Sort It Out chords, tabs, tablatures, lyrics

Guitar lessons | Add/correct | Request | Top 50 tabs Artists:  A B C D E F G H I J K L M N O P Q R S T U V W X Y Z 0-9

Sort It Out Guitar Tabs – Caesars

CD, Sheet music, Poster

Do you like Sort It Out? Share with your friends now
TabsTabs v2
The Caesars
Youth is Wasted on the Young/39 Minutes of Bliss (In an Otherwise Meaningless World)

Tuning: Standard

Key: where n = whatever note
n* - Alternate/optional note
(n) - Ghost note (somewhat optional)

Updated October 14, 2011 (I've made a large number of changes)
I'm sure that this is 95-100% correct.
Don't be frightened about the way the intro and outro to Guitars 1 & 2 looks. It's 
not that hard, it just has a lot of variations and optional notes. 

Guitar 1 - Electric, some distortion
Guitar 2 - Nylon string (maybe finger picked, not sure)
Guitar 3 - In the song, this is not a guitar. It's a keyboard. It has been 
transcribed from keyboard to guitar.
Guitar 4 - Electric, some distortion. (in the recording, it was probably dubbed in)

Intro - Guitar 1
e|----------------0--------------0------------------0--------------0----|
B|--------3-----3----------3-------3--------3-----3----------3-------3--|
G|------4-----4----------4-----4----------4-----4----------4-----4------|
D|----4----(4)-------0*4----(4)---------4----(2)---------4----(2)-------|
A|--2----------------5----------------0---------------------------------|
E|-----------------------------------------------------3----------------|
-The open D can replace the 5 on the A string to make the fingering easier.

continued
e|----------------0--------------0------------------0------------------|
B|--------3-----3----------3-------3--------3-----3----------3-------3-|
G|------4-----4----------4-----4----------4-----4----------4-------4---|
D|----4----(4)-------0*4----(4)---------4----(2)---------4-------4-----|
A|--2----------------5----------------0--------------------------------|
E|-----------------------------------------------------3-------0*------|
-The open E I believe is played on the bass, but you can play it to make the riff 
sound a bit more complete.

continued
e|--------------0------------------0--------------0----------------0----|
B|--------3-------3--------3-----3----------3-------3--------3-------3--|
G|------4-----4----------4-----4----------4-----4----------4-----4------|
D|----4----(4)-------0*4----(4)---------4----(2)---------4----(2)-------|
A|--2----------------5----------------0---------------------------------|
E|-----------------------------------------------------3----------------|

continued
e|----------------0--------------0------------------0-------------------|
B|--------3-----3----------3-------3--------3-----3----------3-------3--|
G|------4-----4----------4-----4----------4-----4----------4-------4----|
D|----4----(4)-------0*4----(4)---------4----(2)---------4-------4------|
A|--2----------------5----------------0---------------------------------|
E|-----------------------------------------------------3-------0*-------|

Intro - Guitar 2
e|--------------0------------------0--------------0----------------0----|
B|--------3-------3--------3-----3----------3-------3--------3-------3--|
G|------4-----4----------4-----4----------4-----4----------4-----4------|
D|----4----(4)-------0*4----(4)---------4----(2)---------4----(2)-------|
A|--2----------------5----------------0---------------------------------|
E|-----------------------------------------------------3----------------|

continued
e|--------------0------------------0--------------0----------------0----|
B|--------3-------3--------3-----3----------3-------3--------3-------3--|
G|------4-----4----------4-----4----------4-----4----------4-----4------|
D|----4----(4)-------0*4----(4)---------4----(2)---------4----(2)-------|
A|--2----------------5----------------0---------------------------------|
E|-----------------------------------------------------3----------------|

continued
e|--------------0------------------0--------------0----------------0----|
B|--------3-------3--------3-----3----------3-------3--------3-------3--|
G|------4-----4----------4-----4----------4-----4----------4-----4------|
D|----4----(4)-------0*4----(4)---------4----(2)---------4----(2)-------|
A|--2----------------5----------------0---------------------------------|
E|-----------------------------------------------------3----------------|

continued
e|--------------0------------------0--------------0----------------0----|
B|--------3-------3--------3-----3----------3-------3--------3-------3--|
G|------4-----4----------4-----4----------4-----4----------4-----4------|
D|----4----(4)-------0*4----(4)---------4----(2)---------4----(2)-------|
A|--2----------------5----------------0---------------------------------|
E|-----------------------------------------------------3----------------|

Intro - Guitar 3
e|-----10----12------10----12------10----10-----10---10--|\
B|--12----12------10----10------10----10------8----8-----| \
G|-------------------------------------------------------|  \
D|-------------------------------------------------------|   \
A|-------------------------------------------------------|    \
E|-------------------------------------------------------|     \  
                                                                \
continued                                                       / x2
e|-----10----12------10----12------10----12-----10---10--|     /
B|--12----12------10----10------10----10------8----8-----|    /
G|-------------------------------------------------------|   /
D|-------------------------------------------------------|  /
A|-------------------------------------------------------| /
E|-------------------------------------------------------|/

Pre-verse 1 - Guitar 1
e|-------------------------------------------------------------------|
B|-------------------------------------------------------------------|
G|----------------4---------------7----------------------------------| x2
D|------4---2-4---------7---5-7-------------------7---------------5--|
A|--2-2---2-----2---5-5---5-----5-------7---5-7---------5---3-5------|
E|----------------------------------5-5---5-----5---3-3---3-----3----|

Pre-verse 1 - Guitar 3 
e|--7---------------10---------------------------------|
B|--7---------------10--------------10--------------8--|
G|--4----------------7---------------9--------------7--| x2 
D|-----------------------------------7--------------5--|
A|-----------------------------------------------------|
E|-----------------------------------------------------|

Pre-verse 1 - Guitar 4
e|-------------------------------------------------------------------|
B|-------------------------------------------------------------------|
G|-------------------------------------------------------------------| x2
D|--4-4-4-4-4-4-4-4-7-7-7-7-7-7-7-7----------------------------------|
A|--2-2-2-2-2-2-2-2-5-5-5-5-5-5-5-5-7-7-7-7-7-7-7-7-5-5-5-5-5-5-5-5--|
E|----------------------------------5-5-5-5-5-5-5-5-3-3-3-3-3-3-3-3--|

Verse 1 - Guitar 1
e|-------------------------------------------------------------------|
B|-------------------------------------------------------------------|
G|-------------------------------------------------------------------| x3
D|------4---2-4---4-----7---5-7---7----------------------------------|
A|--2-2---2-----2---5-5---5-----5-------7---5-7---7-----5---3-5---5--|
E|----------------------------------5-5---5-----5---3-3---3-----3----|

continued
e|-------------------|
B|-------------------|
G|-------------------|
D|-------------------|
A|--5-5-5-5-7-7-7-7--|
E|--3-3-3-3-5-5-5-5--|

Verse 1 - Guitar 3 
e|--7---------------10---------------------------------|
B|--7---------------10--------------10--------------8--|
G|--4----------------7---------------9--------------7--| x3
D|-----------------------------------7--------------5--|
A|-----------------------------------------------------|
E|-----------------------------------------------------|

Verse 1 - Guitar 4
e|-------------------------------------------------------------------|
B|-------------------------------------------------------------------|
G|-------------------------------------------------------------------| x3
D|--4-4-4-4-4-4-4-4-7-7-7-7-7-7-7-7----------------------------------|
A|--2-2-2-2-2-2-2-2-5-5-5-5-5-5-5-5-7-7-7-7-7-7-7-7-5-5-5-5-5-5-5-5--|
E|----------------------------------5-5-5-5-5-5-5-5-3-3-3-3-3-3-3-3--|

continued
    G    A
e|--3----5--|
B|--3----5--|
G|--4----6--|
D|--5----7--|
A|--5----7--|
E|--3----5--|

Chorus 1 - Guitar 1
e|-------------------------------------------------------------------|
B|-------------------------------------------------------------------|
G|--4-4-4-4-4-4-4-4--------------------------------------------------| x2
D|--4-4-4-4-4-4-4-4-5-5-5-5-5-5-5-5-4-4-4-4-4-4-4-4-4-4-4-4-4-4-4-4--|
A|--2-2-2-2-2-2-2-2-5-5-5-5-5-5-5-5-4-4-4-4-4-4-4-4-4-4-4-4-4-4-4-4--|
E|------------------3-3-3-3-3-3-3-3-2-2-2-2-2-2-2-2-2-2-2-2-2-2-2-2--|
-You can play the full chords on Guitar 1 as played on Guitar 4 for a fuller 
sound, but this is how it is on the recording.

Chorus 1 - Guitar 4
    Bm              G               F#
e|--2---------------3---------------2---------------2----------------|
B|--3---------------3---------------2---------------2----------------|
G|--4---------------4---------------3---------------3----------------| x2
D|--4---------------5---------------4---------------4----------------|
A|--2---------------5---------------4---------------4----------------|
E|------------------3---------------2---------------2----------------|

Pre-verse 2 - Guitar 1
e|-------------------------------------------------------------------|
B|-------------------------------------------------------------------|
G|----------------4---------------7----------------------------------| x2
D|------4---2-4---------7---5-7-------------------7---------------5--|
A|--2-2---2-----2---5-5---5-----5-------7---5-7---------5---3-5------|
E|----------------------------------5-5---5-----5---3-3---3-----3----|

Pre-verse 2 - Guitar 3 
e|--7---------------10---------------------------------|
B|--7---------------10--------------10--------------8--|
G|--4----------------7---------------9--------------7--| x2 
D|-----------------------------------7--------------5--|
A|-----------------------------------------------------|
E|-----------------------------------------------------|

Pre-verse 2 - Guitar 4
e|-------------------------------------------------------------------|
B|-------------------------------------------------------------------|
G|-------------------------------------------------------------------| x2
D|--4-4-4-4-4-4-4-4-7-7-7-7-7-7-7-7----------------------------------|
A|--2-2-2-2-2-2-2-2-5-5-5-5-5-5-5-5-7-7-7-7-7-7-7-7-5-5-5-5-5-5-5-5--|
E|----------------------------------5-5-5-5-5-5-5-5-3-3-3-3-3-3-3-3--|

Verse 2 - Guitar 1
e|--------------------------------------------------------------------|
B|--------------------------------------------------------------------|
G|--------------------------------------------------------------------| x3
D|------4---2-4---4-----7---5-7---7-----------------------------------|
A|--2-2---2-----2---5-5---5-----5-------7---5-7---7------5---3-5---5--|
E|----------------------------------5-5---5-----5----3-3---3-----3----|

continued
e|-------------------|
B|-------------------|
G|-------------------|
D|-------------------|
A|--5-5-5-5-7-7-7-7--|
E|--3-3-3-3-5-5-5-5--|

Verse 2 - Guitar 3 
e|--7---------------10---------------------------------|
B|--7---------------10--------------10--------------8--|
G|--4----------------7---------------9--------------7--| x2 
D|-----------------------------------7--------------5--|
A|-----------------------------------------------------|
E|-----------------------------------------------------|

Verse 2 - Guitar 4 
e|-------------------------------------------------------------------|
B|-------------------------------------------------------------------|
G|-------------------------------------------------------------------| x3
D|--4-4-4-4-4-4-4-4-7-7-7-7-7-7-7-7----------------------------------|
A|--2-2-2-2-2-2-2-2-5-5-5-5-5-5-5-5-7-7-7-7-7-7-7-7-5-5-5-5-5-5-5-5--|
E|----------------------------------5-5-5-5-5-5-5-5-3-3-3-3-3-3-3-3--|

continued
    G    A
e|--3----5--|
B|--3----5--|
G|--4----6--|
D|--5----7--|
A|--5----7--|
E|--3----5--|


Chorus 2 - Guitar 1
e|------------------------------------------------------------------|
B|------------------------------------------------------------------|
G|--4-4-4-4-4-4-4-4-------------------------------------------------| x4
D|--4-4-4-4-4-4-4-4-5-5-5-5-5-5-5-5-4-4-4-4-4-4-4-4-4-4-4-4-4-4-4-4-|
A|--2-2-2-2-2-2-2-2-5-5-5-5-5-5-5-5-4-4-4-4-4-4-4-4-4-4-4-4-4-4-4-4-|
E|------------------3-3-3-3-3-3-3-3-2-2-2-2-2-2-2-2-2-2-2-2-2-2-2-2-|

Chorus 2 - Guitar 4
    Bm              G               F#
e|--2---------------3---------------2---------------2----------------|
B|--3---------------3---------------2---------------2----------------|
G|--4---------------4---------------3---------------3----------------| x2
D|--4---------------5---------------4---------------4----------------|
A|--2---------------5---------------4---------------4----------------|
E|------------------3---------------2---------------2----------------|

(Very short) Bridge - Guitar 3
e|--7---------------10---------------------------------|
B|--7---------------10--------------10--------------8--|
G|--4----------------7---------------9--------------7--|
D|-----------------------------------7--------------5--|
A|-----------------------------------------------------|
E|-----------------------------------------------------|

Pre-chorus/Post-bridge - Guitar 1
e|-------------------------------------------------------------------|
B|-------------------------------------------------------------------|
G|----------------4---------------7----------------------------------| x2
D|------4---2-4---------7---5-7-------------------7---------------5--|
A|--2-2---2-----2---5-5---5-----5-------7---5-7---------5---3-5------|
E|----------------------------------5-5---5-----5---3-3---3-----3----|

continued
e|-------------------|
B|-------------------|
G|-------------------|
D|-------------------|
A|--5-5-5-5-7-7-7-7--|
E|--3-3-3-3-5-5-5-5--|

Pre-chorus/Post-bridge - Guitar 3 
e|--7---------------10---------------------------------|
B|--7---------------10--------------10--------------8--|
G|--4----------------7---------------9--------------7--| x2 
D|-----------------------------------7--------------5--|
A|-----------------------------------------------------|
E|-----------------------------------------------------|

Pre-chorus/Post-bridge - Guitar 4
e|-------------------------------------------------------------------|
B|-------------------------------------------------------------------|
G|-------------------------------------------------------------------| x2
D|--4-4-4-4-4-4-4-4-7-7-7-7-7-7-7-7----------------------------------|
A|--2-2-2-2-2-2-2-2-5-5-5-5-5-5-5-5-7-7-7-7-7-7-7-7-5-5-5-5-5-5-5-5--|
E|----------------------------------5-5-5-5-5-5-5-5-3-3-3-3-3-3-3-3--|

continued
    G    A
e|--3----5--|
B|--3----5--|
G|--4----6--|
D|--5----7--|
A|--5----7--|
E|--3----5--|

Chorus 3 - Guitar 1
e|------------------------------------------------------------------|
B|------------------------------------------------------------------|
G|--4-4-4-4-4-4-4-4-------------------------------------------------| x4
D|--4-4-4-4-4-4-4-4-5-5-5-5-5-5-5-5-4-4-4-4-4-4-4-4-4-4-4-4-4-4-4-4-|
A|--2-2-2-2-2-2-2-2-5-5-5-5-5-5-5-5-4-4-4-4-4-4-4-4-4-4-4-4-4-4-4-4-|
E|------------------3-3-3-3-3-3-3-3-2-2-2-2-2-2-2-2-2-2-2-2-2-2-2-2-|

Chorus 3 - Guitar 4
    Bm              G               F#
e|--2---------------3---------------2---------------2----------------|
B|--3---------------3---------------2---------------2----------------|
G|--4---------------4---------------3---------------3----------------| x4
D|--4---------------5---------------4---------------4----------------|
A|--2---------------5---------------4---------------4----------------|
E|------------------3---------------2---------------2----------------|

Guitar 4 ends on
   Bm
e|--2--|
B|--3--|
G|--4--|
D|--4--|
A|--2--|
E|-----|

Outro - Guitar 1
e|--------------0------------------0--------------0----------------0----|
B|--------3-------3--------3-----3----------3-------3--------3-------3--|
G|------4-----4----------4-----4----------4-----4----------4-----4------|
D|----4----(4)-------0*4----(4)---------4----(2)---------4----(2)-------|
A|--2----------------5----------------0---------------------------------|
E|-----------------------------------------------------3----------------|

continued
e|--------------0------------------0--------------0--------------------|
B|--------3-------3--------3-----3----------3-------3--------3-------3-|
G|------4-----4----------4-----4----------4-----4----------4-------4---|
D|----4----(4)-------0*4----(4)---------4----(2)---------4-------4-----|
A|--2----------------5----------------0--------------------------------|
E|-----------------------------------------------------3-------0*------|

continued
e|--------------0------------------0--------------0---------------------|
B|--------3-------3--------3-----3----------3-------3--------3-------3--|
G|------4-----4----------4-----4----------4-----4----------4-------4----|
D|----4----(4)-------0*4----(4)---------4----(2)---------4-------4------|
A|--2----------------5----------------0---------------------------------|
E|-----------------------------------------------------3-------0*--------|

continued
e|--------------0----------------0----------------0----|
B|--------3-------3--------3-------3--------3-------3--|
G|------4-----4----------4-----4----------4-----4------|
D|----4----(4)-------0*4----(4)---------4----(2)-------|
A|--2----------------5----------------0----------------|
E|-----------------------------------------------------|

Outro - Guitar 2
e|----------------0--------------0------------------0--------------0----|
B|--------3-----3----------3-------3--------3-----3----------3-------3--|
G|------4-----4----------4-----4----------4-----4----------4-----4------|
D|----4----(4)-------0*4----(4)---------4----(2)---------4----(2)-------|
A|--2----------------5----------------0---------------------------------|
E|-----------------------------------------------------3----------------|

continued
e|--------------0------------------0--------------0----------------0----|
B|--------3-------3--------3-----3----------3-------3--------3-------3--|
G|------4-----4----------4-----4----------4-----4----------4-----4------|
D|----4----(4)-------0*4----(4)---------4----(2)---------4----(2)-------|
A|--2----------------5----------------0---------------------------------|
E|-----------------------------------------------------3----------------|

continued
e|--------------0------------------0--------------0----------------0----|
B|--------3-------3--------3-----3----------3-------3--------3-------3--|
G|------4-----4----------4-----4----------4-----4----------4-----4------|
D|----4----(4)-------0*4----(4)---------4----(2)---------4----(2)-------|
A|--2----------------5----------------0---------------------------------|
E|-----------------------------------------------------3----------------|

continued
e|--------------0------------------0--------------0----|
B|--------3-------3--------3-----3----------3-------3--|
G|------4-----4----------4-----4----------4-----4------|
D|----4----(4)-------0*4----(4)---------4----(2)-------|
A|--2----------------5----------------0----------------|
E|-----------------------------------------------------|

That's all. If you've got any questions, comments, or maybe even corrections, then 
give me a message.





Comments


Popular Caesars tabs & chords
From The Bughouse Chords
From The Bughouse 1 Chords
Fun And Games Chords
Paper Tigers Chords
Your Time Is Near Chords
Jerk It Out Tabs
Jerk It Out 1 Tabs
Only You 1 Tabs
Cheap Glue Ukulele
May The Rain Ukulele


Song lyrics



↑ Back to top | Tablatures and chords are parodies/interpretations of the original songs. You may use it for private study, scholarship, research or language learning purposes only
© 2014 AZChords.com Contact us | Privacy policy | DMCA | Add/correct tabs | Request tabs | Top 50 tabs