>
 >
Concerto

Concerto Guitar Tabs

Cacophony - Concerto chords, tabs, tablatures, lyrics

Guitar lessons | Add/correct | Request | Top 50 tabs Artists:  A B C D E F G H I J K L M N O P Q R S T U V W X Y Z 0-9

Concerto Guitar Tabs – Cacophony

CD, Sheet music, Poster

Do you like Concerto? Share with your friends now
TabsTabs v2Tabs v3
Concerto By Cacophony

Gtr I (E A D G B E) - 'Jason Becker'
Gtr II (E A D G B E) - 'Marty Friedman'
Gtr III (E A D G B E) - 'Rhythm'


  Gtr II
|-----------|-----------------------|
|-----------|-----------------------|
|------6----|-6b7==(6)-(6)r(6)-4----|
|-4---------|-----------------------|
|-----------|-----------------------|
|-----------|-----------------------|

|-------------------|-----------------------|
|-------------------|-----------------------|
|------4b6-(4)--(4)-|-4b6==(4)-(4)r(4)-2----|
|-3-----------------|-----------------------|
|-------------------|-----------------------|
|-------------------|-----------------------|


|---------------|--------------------|---------------------------|------------|
|-----------9---|-10---9h10p9--------|---------------------------|------------|
|------/11------|-------------7-(7)--|-9--11-11p9p8-9--11-11p9p8-|-9----10----|
|-4-------------|--------------------|---------------------------|------------|
|---------------|--------------------|---------------------------|------------|
|---------------|--------------------|---------------------------|------------|

  Gtr I
|-10p7-------7-12p7-10p7-------10p7-------7-12p7-10p7---|
|------8---8-------------8---8------8---8-------------8-|
|--------7-----------------7----------7-----------------|
|-------------------------------------------------------|
|-------------------------------------------------------|
|-------------------------------------------------------|


|---------------------------------------------------|
|-8p5-------5-10p5-8p5-------5-8p5-------5-8p5------|
|-----6-5-6------------6-5-6-------6-5-6-------6-5--|
|---------------------------------------------------|
|---------------------------------------------------|
|---------------------------------------------------|


|--------------------------9-10-14p12p10----12-14-15p14p12----14-15-|
|------------------8h10h12---------------14----------------15-------|
|-11p9p7----7h9h11--------------------------------------------------|
|--------11---------------------------------------------------------|
|-------------------------------------------------------------------|
|-------------------------------------------------------------------|


|-17p15p14----15-17-19p17p15----17-19-20p19p17----------------------17h19--|
|----------17----------------19----------------20p19p17----17h19h20--------|
|-------------------------------------------------------19-----------------|
|--------------------------------------------------------------------------|
|--------------------------------------------------------------------------|
|--------------------------------------------------------------------------|


|-20p17----------17-20p17----------17-20p17----------17-20p17----------17-|
|-------18----18----------18----18----------18----18----------18----18----|
|----------17----------------17----------------17----------------17-------|
|-------------------------------------------------------------------------|
|-------------------------------------------------------------------------|
|-------------------------------------------------------------------------|


|--------------------------------------------------------------------------|
|-18p15----------15-20p15-18p15----------15-18p15----------15-20p15-18p15--|
|-------16-15-16----------------16-15-16----------16-15-16-----------------|
|--------------------------------------------------------------------------|
|--------------------------------------------------------------------------|
|--------------------------------------------------------------------------|


|-17--13-13-15-13-13-------------------------------------------------------|
|--------------------17-15-13-15-13----------------------------------------|
|-----------------------------------16-14-13-14-13-------------------------|
|--------------------------------------------------15-14-12----------------|
|-----------------------------------------------------------15-14-12-12-14-|
|--------------------------------------------------------------------------|


|--------------------------------13-15-17-17-13-13-17-13-13-17-15-13-15-13--|
|-----------------------13-15-17--------------------------------------------|
|--------------13-14-16-----------------------------------------------------|
|-----12-14-15--------------------------------------------------------------|
|-15------------------------------------------------------------------------|
|---------------------------------------------------------------------------|


|--------------------------------------------------------------------------|
|-17--15-13----------------------------------------------------------------|
|-----------16-14-13----------------------------------13-14-16-14-13-14-13-|
|--------------------15-14-12----------------12-14-15----------------------|
|-----------------------------15-14-12-14-15-------------------------------|
|--------------------------------------------------------------------------|


|---------------------------------------|
|---------------------------------------|
|-----13-------------------14b16--14b16-|
|-15-----15-14-15-14-12-14--------------|
|---------------------------------------|
|---------------------------------------|

  Gtr I
|----------------------|----------------------|
|-17b19-(17)--17--15---|-15b17-(15)--15--14---|
|----------------------|----------------------|
|----------------------|----------------------|
|----------------------|----------------------|
|----------------------|----------------------|
|
| Gtr II
|----------------------|----------------------|
|-14b15-(14)--14--12---|-12b14-(12)--12--11---|
|----------------------|----------------------|
|----------------------|----------------------|
|----------------------|----------------------|
|----------------------|----------------------|


|--------------------|----------|-17pb19r====|
|-14b15-(14)----(14)-|-19-------|------------|
|--------------------|----------|------------|
|--------------------|----------|------------|
|--------------------|----------|------------|
|--------------------|----------|------------|
|
|
|--------------------|----------|------------|
|-11b12-(11)----(11)-|----------|------------|
|--------------------|----------|------------|
|--------------------|----------|------------|
|--------------------|----------|------------|
|--------------------|----------|------------|


   Main Theme

    Gtrs I, II
|------9-14p9--------9-10p9----|-------9---------12p10p9---------|
|o------------10------------12-|-10h12---12-10-9---------12p10p9-|
|--11------------11------------|---------------------------------|
|------------------------------|---------------------------------|
|o-----------------------------|---------------------------------|
|------------------------------|---------------------------------|


|-------9-14p9--------9-10p9----|-------9---------14p12p10----------|
|----10--------10------------12-|-10h12---12-10-9----------14p12p10-|
|-11--------------11------------|-----------------------------------|
|-------------------------------|-----------------------------------|
|-------------------------------|-----------------------------------|
|-------------------------------|-----------------------------------|


|-------9-14p9--------9-10p9----|-------9---------12p10p9---------|
|----10--------10------------12-|-10h12---12-10-9---------12p10p9-|
|-11--------------11------------|---------------------------------|
|-------------------------------|---------------------------------|
|-------------------------------|---------------------------------|
|-------------------------------|---------------------------------|


  1.
|-------9-14p9--------9-10p9----|-------9---------14p12p10--------------||
|----10--------10------------12-|-10h12---12-10-9----------14p12p10----o||
|-11--------------11------------|---------------------------------------||
|-------------------------------|---------------------------------------||
|-------------------------------|--------------------------------------o||
|-------------------------------|---------------------------------------||


  2.
|-13-9-10-13-10-9-----------------|--------------------------------|
|-----------------12-9-10-12-10-9-|--------------------------------|
|---------------------------------|-13-10-11-13-11-10--------------|
|---------------------------------|-------------------11-----------|
|---------------------------------|--------------------------------|
|---------------------------------|--------------------------------|


|---------------------------------|-----------------------------------|
|---------------------------------|-----------------------------------|
|---------------------------------|---------9-13p9--------------------|
|-------9-14p9----------9-14p9----|-------9--------9----------9-------|
|----11--------11----11--------11-|----11------------11----11---11----|
|-12--------------12--------------|-12------------------12------------|


|-------------------------------------|-------------11----------------------|
|-------------------------------------|----------12----12-------------------|
|-------11-16p11----------11-16p11----|-------11----------11----------11----|
|----13----------13----13----------13-|----13----------------13----13----13-|
|-14----------------14----------------|-14----------------------14----------|
|-------------------------------------|-------------------------------------|


|-------------------------------------|----------------16-21p16---------------|
|-------------------------------------|-------------17----------17------------|
|-------13-18p13----------13-18p13----|-------13-18----------------18---------|
|----14----------14----14----------14-|----14---------------------------------|
|-16----------------16----------------|-16------------------------------------|
|-------------------------------------|---------------------------------------|


|--------------------------------------|--------------------------|
|-17b19--(17)----------17pb18r==(17)---|-16--17---16--------------|
|--------------------------------------|--------------------------|
|--------------------------------------|--------------------------|
|--------------------------------------|--------------------------|
|--------------------------------------|--------------------------|


|---------------------------------|-----------------------------------|
|---------------------------------|-----------------------------------|
|---------------------------------|---------9-13p9--------------------|
|-------9-14p9----------9-14p9----|-------9--------9----------9-------|
|----11--------11----11--------11-|----11------------11----11---11----|
|-12--------------12--------------|-12------------------12------------|


|----------12--15--12------|----------------|
|------13--------------13--|----------------|
|-12-----------------------|-12-------------|
|--------------------------|----------------|
|--------------------------|----------------|
|--------------------------|----------------|


|-------------------------------------|----------------------------------------|
|-------------------------------------|----------------------------------------|
|-------------------------------------|----------10-14p10----------------------|
|-------10-15p10----------10-15p10----|-------10----------10----------10-------|
|----12----------12----12----------12-|----12----------------12----12----12----|
|-13----------------13----------------|-13----------------------13-------------|


  Gtr I
|-------------------------------------|-------------------------------|
|-------------------------------------|-------12-15-(15)--------------|
|-------------------------------------|----13-------------------------|
|-------------------12-15-12----12-15-|-15----------------------------|
|-11-14-11----11-14----------14-------|-------------------------------|
|----------13-------------------------|-------------------------------|
|
| Gtr II
|-------------------------------------|-------10-13S=15---------------|
|-------------------------------------|----12-------------------------|
|-------------------10-13-10----10-13-|-13----------------------------|
|--9-12--9-----9-12----------12-------|-------------------------------|
|----------11-------------------------|-------------------------------|
|-------------------------------------|-------------------------------|


    Gtrs I, II
||--------12-17p12----------12-13p12----|-------12----------15p13p12----------|
||o----13----------13----13----------15-|-13h15----15-13-12----------15p13p12-|
||--14----------------14----------------|-------------------------------------|
||--------------------------------------|-------------------------------------|
||o-------------------------------------|-------------------------------------|
||--------------------------------------|-------------------------------------|


|-------12-17p12----------12-13p12----|-------12----------17p15p13------------|
|----13----------13----13----------15-|-13h15----15-13-12----------17p15p13---|
|-14----------------14----------------|---------------------------------------|
|-------------------------------------|---------------------------------------|
|-------------------------------------|---------------------------------------|
|-------------------------------------|---------------------------------------|


|-------12-17p12----------12-13p12----|-------12----------15p13p12----------|
|----13----------13----13----------15-|-13h15----15-13-12----------15p13p12-|
|-14----------------14----------------|-------------------------------------|
|-------------------------------------|-------------------------------------|
|-------------------------------------|-------------------------------------|
|-------------------------------------|-------------------------------------|


  1.
|-------12-17p12----------12-13p12----|-------12----------17p15p13--------------||
|----13----------13----13----------15-|-13h15----15-13-12----------17p15p13----o||
|-14----------------14----------------|-----------------------------------------||
|-------------------------------------|-----------------------------------------||
|-------------------------------------|----------------------------------------o||
|-------------------------------------|-----------------------------------------||


  2.

  Gtrs I, II
|-16-12-13-16-13-12-------------------|--------------------------------|
|-------------------15-12-13-15-13-12-|--------------------------------|
|-------------------------------------|-16-13-14-16-14-13--------------|
|-------------------------------------|-------------------14-----------|
|-------------------------------------|--------------------------------|
|-------------------------------------|--------------------------------|


|---------------------------|------------------------------|
|-14------------------------|-17-----------14--------------|
|--------------14-----------|------------------------------|
|---------------------------|------------------------------|
|---------------------------|------------------------------|
|---------------------------|------------------------------|


 Guitar Solo

  Gtr I
|-17------------------------|-19pb21r=(19)-(19)b21-(19)--------------|
|--------------17-----------|----------------------------------------|
|---------------------------|----------------------------------------|
|---------------------------|----------------------------------------|
|---------------------------|----------------------------------------|
|---------------------------|----------------------------------------|
|
| Gtr II
|-17------------------------|-19pb21r=(19)-(19)b21-(19)--------------|
|--------------17-----------|----------------------------------------|
|---------------------------|----------------------------------------|
|---------------------------|----------------------------------------|
|---------------------------|----------------------------------------|
|---------------------------|----------------------------------------|


|-21p17----------17-19p16----------16-|-14p9----------9S16p13----------13----|
|-------17----17----------17----17----|------10----10---------14----14-------|
|----------18----------------16-------|---------11---------------16----------|
|-------------------------------------|--------------------------------------|
|-------------------------------------|--------------------------------------|
|-------------------------------------|--------------------------------------|
|
| 
|-------------------------------------|--------------------------------------|
|-------------------------------------|--------------------------------------|
|-------------------------------------|--------------------------------------|
|-------------------------------------|--------------------------------------|
|-------------------------------------|------------------4-----4--4--4--4----|
|--5-----5--5--5--5--0-----0--0--0--0-|--2----2--2--2-2----------------------|


|-13p9----------9S16p13----------13-|-9h12p9-------------------------9-|
|------10----10---------14----14----|--------10-------------------10---|
|---------11---------------16-------|-----------9---------------9------|
|-----------------------------------|-------------11---------11--------|
|-----------------------------------|----------------12-7-12-----------|
|-----------------------------------|----------------------------------|
|
|
|-----------------------------------|----------------------------------|
|-----------------------------------|----------------------------------|
|-----------------------------------|----------------------------------|
|-----------------------------------|----------------------------------|
|------------------4-----4--4--4--4-|-------------------7-----7-7--7-7-|
|--2----2--2--2-2-------------------|-5-------5-5--5--5----------------|


|----------------------------|----------------------------------|
|----------------------------|----------------------------------|
|----------------------------|----------------------------------|
|----------------------------|----------------------------------|
|----------------------------|----------------------------------|
|-5---5-5-5-5--5----5-5--5-5-|--5-----5--5--5--5--5--5-5--5-5---|
|
|
|-8p5-------5S12-8---------8S|=17-12----------12S20------17-----|
|-----5---5--------10---10---|-------13----13-------------------|
|-------5-------------9------|----------14----------------------|
|----------------------------|----------------------------------|
|----------------------------|----------------------------------|
|----------------------------|----------------------------------|


  Gtr II
|-19------16h17h19p17p16----------|----------------------------------|
|---------------------------------|----------------------------------|
|------------------------13h14h16p|=14p13----13----------------------|
|---------------------------------|-------14----14-----------(14)\---|
|---------------------------------|----------------------------------|
|---------------------------------|----------------------------------|


|------------------------------|-----------------------------------------|
|------------------------------|------------------------------17-20b24---|
|-----5-9p5----------9-14p9----|--------14-17p14-----------17------------|
|---7-------7-----10--------10-|-----14----------14-----19---------------|
|-7-----------/12--------------|-/15----------------/19------------------|
|------------------------------|-----------------------------------------|


|----------------------------------|-16-19-21p16----16------------------------|
|-(20)----------17--19b21---(19)---|-------------19----19-19b21-(19)----------|
|----------------------------------|------------------------------------------|
|----------------------------------|------------------------------------------|
|----------------------------------|------------------------------------------|
|----------------------------------|------------------------------------------|


|-20p17-------------------------------|-------------------------------|
|-------18----------------------------|-------------------------------|
|----------17S14----17p14-------------|-------10----------------------|
|----------------15-------15----------|----10----10-------------------|
|----------------------------15S12----|-12----------12----------------|
|----------------------------------13-|----------------13-8-----------|


|-------------------------------------------|----------------------------------------|
|-------------------------------------------|--------------------16-19-19b22---(19)--|
|-------------------------------------14-17-|--------14-17-14-17---------------------|
|-------------13-------13-------13h16-------|-13--16---------------------------------|
|-------12h15----12h15----12h15-------------|----------------------------------------|
|-11h14-------------------------------------|----------------------------------------|


|-------------------------------------|--------------------------------|
|-15-15-------------------------------|--------------------------------|
|-------14-11-14-11-14-14-11----------|--------------------------------|
|----------------------------12-14-12-|-14-14-12-----------------------|
|-------------------------------------|----------12--------------------|
|-------------------------------------|-------------14-12-10-----------|


|-------------------------------|-----------------------------------|
|-------------------------------|-----------9----9-11-(11)----------|
|--------------------------8----|-8-11-8-11---11--------------------|
|-----------8----8-11-8-11---11-|-----------------------------------|
|-9-11-9-11---11----------------|-----------------------------------|
|-------------------------------|-----------------------------------|


|----------------------------------|-------------------------------|
|-13-13----------------------------|-------------------------------|
|-------12-9-12-9-12-12-9----------|-------------------------------|
|-------------------------10-12-10-|-12-12-10----------------------|
|----------------------------------|----------10-------------------|
|----------------------------------|-------------12-10-8-----------|


|-------------------------|------------------------------|
|-------------------------|---------7---7-9-(9)----------|
|---------------------6---|-6-9-6-9---9------------------|
|---------6---6-9-6-9---9-|------------------------------|
|-7-9-7-9---9-------------|------------------------------|
|-------------------------|------------------------------|


|-11p10-------------10p6----------|-5p3---------------------|
|-------11p10------------10-8-----|-----3-------------------|
|-------------12--------------7---|-------3-----7p3---------|
|----------------12-------------8-|---------7-5-----7-5-----|
|---------------------------------|---------------------5---|
|---------------------------------|-----------------------6-|


|-------------------------------------|-------------------------------15-18----|
|-------------------------------------|-------------15-18-------15-18----------|
|-------------------------------15-17-|-------15-17-------15-17----------------|
|-------------15-17-------15-17-------|-15-17----------------------------------|
|-------15-17-------15-17-------------|----------------------------------------|
|-15-18-------------------------------|----------------------------------------|


 Breakdown

|-18b20-(18)--------------(18)-----|
|----------------------------------|
|----------------------------------|
|----------------------------------|
|----------------------------------|
|----------------------------------|


|-------------------------|-------------------------|
|-----8p6p5-------5-6p5---|-5h6h8p6p5-------5-6p5---|
|-6h7-------7-6h7-------7-|-----------7-6h7-------7-|
|-------------------------|-------------------------|
|-------------------------|-------------------------|
|-------------------------|-------------------------|


|-------5-6-5-9-5-6---5---|--------------------------|
|-5h6h8-------------8---6-|-8-5-6---5----------------|
|-------------------------|-------7---6-7---6--------|
|-------------------------|---------------8---7\-----|
|-------------------------|--------------------------|
|-------------------------|--------------------------|


|---------------9-12S15p12-------------|-------------12-15S18p15---------------|
|------------11------------14----------|----------14-------------17------------|
|-------9-12------------------15-12----|----12-15-------------------18-15------|
|-11-12-----------------------------14-|-14-------------------------------17---|
|--------------------------------------|---------------------------------------|
|--------------------------------------|---------------------------------------|


|-------------15-18S21p18-------------|----------18-21-21b24-(21)----------|
|----------17-------------20----------|-------20---------------------------|
|----15-18-------------------21-18----|-18-21------------------------------|
|-17-------------------------------20-|------------------------------------|
|-------------------------------------|------------------------------------|
|-------------------------------------|------------------------------------|


|---------------------------|----------------------------|
|-10p6-6-6-6-6-10p6-6-6-6-6-|-8p5-5-5-5-5-8p5-5-5-5-5----|
|---------------------------|----------------------------|
|---------------------------|----------------------------|
|---------------------------|----------------------------|
|---------------------------|----------------------------|


|-----------------------5---|-------------------------|
|-5h6p5-----------5-6-8---8-|-6-5---------------------|
|-------7-5-7-5-7-----------|-----7-5S4---------------|
|---------------------------|-----------6-7-----------|
|---------------------------|-------------------------|
|---------------------------|-------------------------|


|---------------------------|---------------------------------------|
|-10p6-6-6-6-6-10p6-6-6-6-6-|-13p10-10-10-10-10-13p10-10-10-10-10---|
|---------------------------|---------------------------------------|
|---------------------------|---------------------------------------|
|---------------------------|---------------------------------------|
|---------------------------|---------------------------------------|


|-13p10----------------------------|-----------------------------------|
|-------12-------------------------|-----------------------------------|
|----------13-10-------------------|-----------10-13-13b16--(13)-------|
|----------------12-9--------------|------9-12-------------------------|
|---------------------11-8---------|-8-11------------------------------|
|--------------------------10-7-10-|-----------------------------------|


|----------13-10-10-15-12-12----------|----------17-13-13-18-15-15-------------|
|-13-10-10-------------------15-12-12-|-17-13-13-------------------18-15-15----|
|-------------------------------------|----------------------------------------|
|-------------------------------------|----------------------------------------|
|-------------------------------------|----------------------------------------|
|-------------------------------------|----------------------------------------|


|-------------------------------------|-------------------------------|
|-18-18-17-18-17-15-17-15-17-18-17-15-|-17-15----15-------------------|
|-------------------------------------|-------17----17-16-17----14----|
|-------------------------------------|-------------------------------|
|-------------------------------------|-------------------------------|
|-------------------------------------|-------------------------------|


|----------13-10-10-15-12-12----------|----------17-13-13-18-15-15-------------|
|-13-10-10-------------------15-12-12-|-17-13-13-------------------18-15-15----|
|-------------------------------------|----------------------------------------|
|-------------------------------------|----------------------------------------|
|-------------------------------------|----------------------------------------|
|-------------------------------------|----------------------------------------|


|-------------------------------------|---------------------------------|
|-18-18-17-18-17-15-17-15-17-18-17-15-|-17-15----15---------------------|
|-------------------------------------|-------17----17-16-17-----(17)\--|
|-------------------------------------|---------------------------------|
|-------------------------------------|---------------------------------|
|-------------------------------------|---------------------------------|


|-------------------------------------|----------------16-19p16----------------|
|-------------------------------------|-------------18----------18-------------|
|-------------------------------16h19-|-------16h19----------------19-16-------|
|-------------15h18-------15h18-------|-15h18----------------------------18----|
|-------14h17-------14h17-------------|----------------------------------------|
|-13h16-------------------------------|----------------------------------------|


|----------16-19----19S22p19-------------|
|-------18-------18----------21----------|
|-16-19-------------------------22-19----|
|-------------------------------------21-|
|----------------------------------------|
|----------------------------------------|


|-------------------------|-----------------------------|
|-------------------------|-----------------------------|
|-19----------------------|-----------------------------|
|-------------------------|--------------------12-------|
|-------------------------|--------------12-------------|
|-------------------------|-10----13--------------------|


|--------------------13-----|-12h13p12-----------------------|
|--------------15-----------|------------15-----13----15-----|
|-------14------------------|--------------------------------|
|-15------------------------|--------------------------------|
|---------------------------|--------------------------------|
|---------------------------|--------------------------------|


|------------------------------------|
|-15b17-(15)--------------(15)-------|
|------------------------------------|
|------------------------------------|
|------------------------------------|
|------------------------------------|


 Arpegios
|-17p14----------14-19p15----------15-|-20p15----------15-19p15----------15-|
|-------15----15----------15----15----|-------17----17----------15----15----|
|----------14----------------16-------|----------17----------------16-------|
|-------------------------------------|-------------------------------------|
|-------------------------------------|-------------------------------------|
|-------------------------------------|-------------------------------------|


|-20p15-17p15----15-19p14-15p14----14-|-17p12-14p12----12S14-15p14---------------|
|-------------19----------------17----|-------------15-------------15------------|
|-------------------------------------|-------------------------------14S12------|
|-------------------------------------|-------------------------------------16---|
|-------------------------------------|------------------------------------------|
|-------------------------------------|------------------------------------------|


|---------------------------------------|--------------------/19--15-------------|
|--------15-20p15-----------12-17p12----|--------15-20p15------------15----------|
|-----16----------16-----13----------13-|-----16----------16------------16-------|
|-17-----------------14-----------------|-17-------------------------------17----|
|---------------------------------------|-------------------------------------17-|
|---------------------------------------|----------------------------------------|


|--------------------------------------|-17p14----------------------------------|
|--------------15-20S22p17----------17-|-------15-------------------------------|
|-----------16-------------18----18----|----------14S11-12h14p12p11-------11----|
|--------17-------------------19-------|----------------------------14-12-------|
|-14--17-------------------------------|----------------------------------------|
|--------------------------------------|----------------------------------------|


|----------------------------------|----------------|
|-15p10----------------------------|----------------|
|-------11-------------------------|----------------|
|----------12----------------------|-12--9-7--------|
|-------------12-9h10h12p10p9----9-|---------10-9-7-|
|-----------------------------12---|----------------|


 Theme 2 - Marty
|------------------|-5---3-2tr3----|-------------------|----------------------|
|--------------3-7-|-------------5-|-3----3-5-5pb6r(5)-|-(5)b7-(5)-5-3tr5--2--|
|------------------|---------------|-------------------|----------------------|
|----------4-7-----|---------------|-------------------|----------------------|
|-5----5-7---------|---------------|-------------------|----------------------|
|------------------|---------------|-------------------|----------------------|


|-------------|-------------|-------------------10-|-14p10---------------------|
|---------2-3-|-3-----------|------------/10-12----|-------12-10h12p10-9-10----|
|-4----/4-----|----2-(2)----|-/6-----(6)-----------|---------------------------|
|-------------|-------------|----------------------|---------------------------|
|-------------|-------------|----------------------|---------------------------|
|-------------|-------------|----------------------|---------------------------|


|-/14p10-----------------------------|-----------------12-17S21p17----------17-|
|--------10--------------------------|--------------14-------------17----17----|
|-----------11--------------------11-|-----------14-------------------18-------|
|--------------12--------------12----|--------14-------------------------------|
|-----------------12-9----9-12-------|-12--16----------------------------------|
|----------------------10------------|-----------------------------------------|


|-19p14----------------------------14-|-17--12----12----12-17-12----12----12---|
|-------15----------------------15----|--------------14----------------14------|
|----------16----------------16-------|--------14----------------14------------|
|-------------16-12----12-16----------|----------------------------------------|
|-------------------14----------------|----------------------------------------|
|-------------------------------------|----------------------------------------|


|--------------------15-19S22p19----19-|-22p17----------17-22-17-----|
|-----------------15-------------20----|-------19----19----------19--|
|--------------16----------------------|----------19-----------------|
|-----------17-------------------------|-----------------------------|
|-----14-17----------------------------|-----------------------------|
|-15-----------------------------------|-----------------------------|


|-----------------------------------------------------------|
|--------------------------------------14h15h17-15-14-15-14-|
|-----------------------------13h14h16----------------------|
|--------------------12h14h16-------------------------------|
|-12--14-16-12-14-16----------------------------------------|
|-----------------------------------------------------------|

---------------|-------------------------------------------|
---14----------|-------------------------------------------|
16----16-14-16-|-14p13-14p13----14-13-16-14-13-14-13-11--9-|
---------------|-------------16----------------------------|
---------------|-------------------------------------------|
---------------|-------------------------------------------|



 Outro
|-----------------------|--------10-9-|-10-------------10-12-10-14-10-12-|
|------10b12==(10)-(10)r|=10----------|-------10-12-14-------------------|
|-7---------------------|-------------|----------------------------------|
|-----------------------|-------------|----------------------------------|
|-----------------------|-------------|----------------------------------|
|-----------------------|-------------|----------------------------------|


|-14--12-10----------------10-----------------------------|
|-----------14-12-10-12-14----14-12-10-14-12-10----10-12--|
|-----------------------------------------------12--------|
|---------------------------------------------------------|
|---------------------------------------------------------|
|---------------------------------------------------------|


|-------15b17-(15)--|-(15)-15-14-14pb15r(14)-14pb15r(14)----|
|-------------------|------------------------------------15-|
|-12----------------|---------------------------------------|
|-------------------|---------------------------------------|
|-------------------|---------------------------------------|
|-------------------|---------------------------------------|


|-17b19==(17)-17-17r(17)--|-22b24==(22)-22-22-22r-22-21-|
|-------------------------|-----------------------------|
|-------------------------|-----------------------------|
|-------------------------|-----------------------------|
|-------------------------|-----------------------------|
|-------------------------|-----------------------------|


|-22----(22)-19-21-22-|
|---------------------|
|---------------------|
|---------------------|
|---------------------|
|---------------------|


|-22b24==(22)-(22)r--22b24==(22)-(22)r(22)-21-|-22-------|-22-----|
|---------------------------------------------|----------|--------|
|---------------------------------------------|----------|--------|
|---------------------------------------------|----------|--------|
|---------------------------------------------|----------|--------|
|---------------------------------------------|----------|--------|


|-22--21-19-21p19----19-------------------------------------------|
|-----------------22----22-20-19-20p19----19----------------------|
|--------------------------------------21----21-19-18-19p18----18-|
|-----------------------------------------------------------21----|
|-----------------------------------------------------------------|
|-----------------------------------------------------------------|


|-----------------------------------------------------------------|
|-----------------------------------------------------------------|
|-----------------------------------------------------------------|
|-21--19-17-19p17----17-------------------------------------------|
|-----------------21----21-19-17-19p17S16-17p16S14-16p14p12S10-12-|
|-----------------------------------------------------------------|


|----------------------------------------------------------------------|
|----------------------------------------------------------------------|
|----------------------------------------------------------------------|
|----------------------------------------------------------------------|
|-14p12p10-12-10----12----------------------10h12h14----------10h12h14-|
|----------------14----14-12-14-12-10h12h14----------10h12h14----------|


|-------------------------------------------------------12h14h15------------|
|----------------------------12h14h15----------12h14h15----------12h14h15---|
|-------------------11h12h14----------11h12h14------------------------------|
|-11h12h14-11h12h14---------------------------------------------------------|
|---------------------------------------------------------------------------|
|---------------------------------------------------------------------------|


|-12h14h15p14p12----------------------------------------------------------|
|----------------15p14p12----------15p14p12-------------------------------|
|-------------------------14p12p11----------14p12p11----------14p12p11----|
|----------------------------------------------------14p12p11----------14-|
|-------------------------------------------------------------------------|
|-------------------------------------------------------------------------|


|----------------------------------------------------------------*|
|----------------------------------------------------------------*|
|----------------------------------------------------------------*|
|-14p12p11----------14p12p11-------------------------------------*|
|----------14p12p10----------14p12p10----------14p12p10----------*|
|-------------------------------------14p12p10----------14p12p10-*|





Comments


Popular Cacophony tabs & chords
Black Cat Tabs
Burn The Ground Tabs
Concerto 1 Tabs
Concerto 2 Tabs
Desert Island Tabs
Images Tabs
Speed Metal Symphony Tabs
The Ninja Tabs
X-ray Eyes Tabs


Song lyrics



↑ Back to top | Tablatures and chords are parodies/interpretations of the original songs. You may use it for private study, scholarship, research or language learning purposes only
© 2014 AZChords.com Contact us | Privacy policy | DMCA | Add/correct tabs | Request tabs | Top 50 tabs