» » »

Ruin By The Selling Out Tabs (ver.1)

Artists:  A B C D E F G H I J K L M N O P Q R S T U V W X Y Z # 

Ruin By The Selling Out Tabs (ver.1)

Butterfingers
Rating:
0/5 (0 votes)

Hard to play? Try these video lessons and learn fast.
                Intro 2X
E--------------------------------------------------|
B--------------------------------------------------|
G--7-9/11-11-11-11-9-11-12-11-9-11/12-12-12-12-----|
D--------------------------------------------------|
A--------------------------------------------------|
D--------------------------------------------------|

E--------------------------------------------------|
B-----------------------------15-15----------------|
G--11-12-14-12-11-12/14-14-14-------14-16-14h16----|
D--------------------------------------------------|
A--------------------------------------------------|
D--------------------------------------------------|

E--------------------------------------------------|
B--------------------------------------------------|
G--12-11-12-11-9-11-9h11-7-------------------------|
D--------------------------------------------------|
A--------------------------------------------------|
D--------------------------------------------------|

Yeah........(open D)    What you gonna
E--------------------------------------------------|
B--------------------------------------------------|
G--------------------------------------------------|
D--------------------------------------------------|
A--0(let ring)---2-2---5---------------------------|
D--0-------------2-2---5---------------------------|

  do........
E--------------------------------------------------|
B--------------------------------------------------|
G--------------------------------------------------|
D---------4/5-4-0----------------------------------|
A-0-x-0-----------4/5-4-0-----------2-2--5---------|
D-0-x-0-------------------4/5-4-0---2-2--5---------|

E--------------------------------------------------|
B--------------------------------------------------|
G--------------------------------------------------|
D---------4/5-4-0----------------------------------|
A-0-x-0-----------4/5-4-0-----------2-2--5---------|
D-0-x-0-------------------4/5-4-0---2-2--5---------|

Verse (all the way....) 3X

E--2-----------------------------------------------|
B--3-----------------------------------------------|
G--2-----------------------------------------------|
D-------------5-----5------------------------------|
A------2---5----5-----5----------------------------|
D------2---5------5-----5--------------------------|

Rock and roll legacy.....
E--------------------------------------------------|
B--------------------------------------------------|
G--------------------------------------------------|
D--------------------------------------------------|
A--2-2-2-2-5-7-5----2-2-2-5------------------------|
D--2-2-2-2-5-7-5----2-2-2-5------------------------|

Chorus: Guitar 1

 Don't..When..Holiday..changing..oligopoly...
E-3------------3------------------3----------------|
B-2------------2------------------2----------------|
G-3------------3------------------3----------------|
D--------------------------------------------------|
A--------2--------------2--5----------------4-5-7--|
D--------2--------------2--5----------------4-5-7--|

Don't..When..Holiday..a whole..it's not...
E-3------------3--------------------3--------------|
B-2------------2--------------------2--------------|
G-3------------3--------------------3--------------|
D--------------------------------------------------|
A--------2--------------2--5----------------4-5-7--|
D--------2--------------2--5----------------4-5-7--|

Chorus (guitar 2)
       Don't you ruin......        When I want...
E--------------------------------------------------|
B--------------------------------------------------|
G------11-11-11-11-9-11-12-11-9-11/12-12-12-12-----|
D--------------------------------------------------|
A--------------------------------------------------|
D--------------------------------------------------|
                      Holiday is where....
E--------------------------------------------------|
B-----------------------------15-15----------------|
G--11-12-14-12-11-12/14-14-14-------14-16-14h16----|
D--------------------------------------------------|
A--------------------------------------------------|
D--------------------------------------------------|
                  oligopoly...
E--------------------------------------------------|
B--------------------------------------------------|
G--12-11-12-11-9-11-9h11-7------------7-9/11-9-----|
D--------------------------------------------------|
A--------------------------------------------------|
D--------------------------------------------------|

E--------------------------------------------------|
B--------------------------------------------------|
G--7-9/11-11-11-11-9-11-12-11-9-11/12-12-12-12-----|
D--------------------------------------------------|
A--------------------------------------------------|
D--------------------------------------------------|

E--------------------------------------------------|
B-----------------------------15-15----------------|
G--11-12-14-12-11-12/14-14-14-------14-16-14h16----|
D--------------------------------------------------|
A--------------------------------------------------|
D--------------------------------------------------|

E--------------------------------------------------|
B--------------------------------------------------|
G--12-11-12-11-9-11-9h11-7-------------------------|
D--------------------------------------------------|
A--------------------------------------------------|
D--------------------------------------------------|

* On 2nd verse, skip this part. Straigth to solo.
E--------------------------------------------------|
B--------------------------------------------------|
G--------------------------------------------------|
D---------4/5-4-0----------------------------------|
A-0-x-0-----------4/5-4-0-----------2-2--5---------|
D-0-x-0-------------------4/5-4-0---2-2--5---------|

E--------------------------------------------------|
B--------------------------------------------------|
G--------------------------------------------------|
D---------4/5-4-0----------------------------------|
A-0-x-0-----------4/5-4-0-----------2-2--5---------|
D-0-x-0-------------------4/5-4-0---2-2--5---------|

Repeat for 2nd verse

Rhythm for solo
E--------------------------------------------------|
B--------------------------------------------------|
G--------------------------------------------------|
D--------------------------------------------------|
A--0---5---7---------------------------------------|
D--0---5---7---------------------------------------|

Then repeat chorus

Outro

  Ruin by selling out
E--------------------------------------------------|
B--------------------------------------------------|
G--------------------------------------------------|
D--------------------------------------------------|
A--0---------5-----7-------------------------------|
D--0---------5-----7-------------------------------|
            
Hard to play? Try these video lessons and learn fast. | Correct




comments powered by Disqus
↑ Back to top | Tablatures and chords are parodies/interpretations of the original songs. You may use it for private study, scholarship, research or language learning purposes only