» » »

Aku Dan Kamu Flop Poppy Tabs (ver.1)

Artists:  A B C D E F G H I J K L M N O P Q R S T U V W X Y Z # 

Aku Dan Kamu Flop Poppy Tabs (ver.1)

Butterfingers
Rating:
0/5 (0 votes)

Hard to play? Try these video lessons and learn fast.
                

Intro Riff

E |------3------------------|--7-------------------15--|-------------|
B |-3/5-----5--3------------|-^10---10--8h10--8----15--|-------------|
G |-----------------4—3-----|--------------------------|-------------|
D |----------------------/7-|--------------------------|-------------|
A |-------------------------|--------------------------|-------------|
E |-------------------------|--------------------------|-------------|

E |------3------------------|---------10----10p8p7--9p7p5---------------|
B |-3/5-----5--3------------|--10/12-----------------------7p5p4-----/8-|
G |-----------------4—3-----|-------------------------------------------|
D |----------------------/7-|-------------------------------------------|
A |-------------------------|-------------------------------------------|
E |-------------------------|-------------------------------------------|


After 1st chorus


E |------3------------------|--7-----------------------|-------------|
B |-3/5-----5--3------------|-^10---10--8h10--8--------|-------------|
G |-----------------4—3-----|--------------------------|-------------|
D |----------------------/7-|--------------------------|-------------|
A |-------------------------|--------------------------|-------------|
E |-------------------------|--------------------------|-------------|

E |------3------------------|------10------------------|-------------|
B |-3/5-----5--3------------|---------^10p8--^10—8-----|-------------|
G |-----------------4—3-----|--/12---------------------|-------------|
D |----------------------/7-|--------------------------|-------------|
A |-------------------------|--------------------------|-------------|
E |-------------------------|--------------------------|-------------|

E |------3------------------|--7-----------------------|-------------|
B |-3/5-----5--3------------|-^10---10--8h10--8--------|-------------|
G |-----------------4—3-----|--------------------------|-------------|
D |----------------------/7-|--------------------------|-------------|
A |-------------------------|--------------------------|-------------|
E |-------------------------|--------------------------|-------------|

E |------3------------------|------10-------------17--15---|
B |-3/5-----5--3------------|-----------------15-----------|
G |-----------------4—3-----|--/12-----12/17---------------|
D |----------------------/7-|------------------------------|
A |-------------------------|------------------------------|
E |-------------------------|------------------------------|
            
Hard to play? Try these video lessons and learn fast. | Correct




comments powered by Disqus
↑ Back to top | Tablatures and chords are parodies/interpretations of the original songs. You may use it for private study, scholarship, research or language learning purposes only