>
 >
Aku Dan Kamu Flop Poppy

Aku Dan Kamu Flop Poppy Guitar Tabs

Butterfingers - Aku Dan Kamu Flop Poppy chords, tabs, tablatures, lyrics

Guitar lessons | Add/correct | Request | Top 50 tabs Artists:  A B C D E F G H I J K L M N O P Q R S T U V W X Y Z 0-9

Aku Dan Kamu Flop Poppy Guitar Tabs – Butterfingers

CD, Sheet music, Poster

Do you like Aku Dan Kamu Flop Poppy? Share with your friends now
Tabs


Intro Riff

E |------3------------------|--7-------------------15--|-------------|
B |-3/5-----5--3------------|-^10---10--8h10--8----15--|-------------|
G |-----------------43-----|--------------------------|-------------|
D |----------------------/7-|--------------------------|-------------|
A |-------------------------|--------------------------|-------------|
E |-------------------------|--------------------------|-------------|

E |------3------------------|---------10----10p8p7--9p7p5---------------|
B |-3/5-----5--3------------|--10/12-----------------------7p5p4-----/8-|
G |-----------------43-----|-------------------------------------------|
D |----------------------/7-|-------------------------------------------|
A |-------------------------|-------------------------------------------|
E |-------------------------|-------------------------------------------|


After 1st chorus


E |------3------------------|--7-----------------------|-------------|
B |-3/5-----5--3------------|-^10---10--8h10--8--------|-------------|
G |-----------------43-----|--------------------------|-------------|
D |----------------------/7-|--------------------------|-------------|
A |-------------------------|--------------------------|-------------|
E |-------------------------|--------------------------|-------------|

E |------3------------------|------10------------------|-------------|
B |-3/5-----5--3------------|---------^10p8--^108-----|-------------|
G |-----------------43-----|--/12---------------------|-------------|
D |----------------------/7-|--------------------------|-------------|
A |-------------------------|--------------------------|-------------|
E |-------------------------|--------------------------|-------------|

E |------3------------------|--7-----------------------|-------------|
B |-3/5-----5--3------------|-^10---10--8h10--8--------|-------------|
G |-----------------43-----|--------------------------|-------------|
D |----------------------/7-|--------------------------|-------------|
A |-------------------------|--------------------------|-------------|
E |-------------------------|--------------------------|-------------|

E |------3------------------|------10-------------17--15---|
B |-3/5-----5--3------------|-----------------15-----------|
G |-----------------43-----|--/12-----12/17---------------|
D |----------------------/7-|------------------------------|
A |-------------------------|------------------------------|
E |-------------------------|------------------------------|





Comments


Popular Butterfingers tabs & chords
Cuai Chords
Garden City Of Light Intro Chords
Mati Hidup Kembali Chords
Tentang-Tentang Chords
Yo Mama Chords
Skew Tabs
Stolen 1 Tabs
Together Tabs
Merpati Sejoli Ukulele
Yo Mama Ukulele


Song lyrics



↑ Back to top | Tablatures and chords are parodies/interpretations of the original songs. You may use it for private study, scholarship, research or language learning purposes only
© 2014 AZChords.com Contact us | Privacy policy | DMCA | Add/correct tabs | Request tabs | Top 50 tabs