» » »

Busted, Crashed The Wedding Tabs (ver.5)

Artists:  A B C D E F G H I J K L M N O P Q R S T U V W X Y Z # 

Crashed The Wedding Tabs (ver.5)

Busted Tabs
Rating:
0/5 (0 votes)
Crashed The Wedding lessons Tabs too difficult? Try these video lessons and learn fast
                this is a really good song everyone in america who hasn't heard of busted should go and
order their album (a present for everyone) off of the internet (i dont think they sell it
anywhere else in the states)i know this tab is 100% correct ive played it along with the song ~ Em 
so here we go-

      h - hammer on 
      p - pull off 
      b - bend string up
      r - release bend
      / - slide up
      \ - slide down
      v - vibrato (sometimes written as ~)
      t - tap (with strumming hand)
      x - muted, struck string

Intro (Play 3x, also plays during second half of chorus)
E[--------------------------------------------------------------------------]
a[--------------------------------------------------------------------------]
d[--------------------------------------------------------------------------]
g[--------------------------------------------------------------------------]
b[-4-----4---4-----*5\6*-4--------------------------------------------------]
e[---6-4---3----3h4---------------------------------------------------------]

*played very quickly*

Before Verse
E[-4------------------------------------------------------------------------]
a[-6(x4)-4-----6-----4------------------------------------------------------]
d[-6-----6(x4)-8(x4)-6(x4)--------------------------------------------------]
g[-------6-----8-----6------------------------------------------------------]
b[--------------------------------------------------------------------------]
e[--------------------------------------------------------------------------]
   XXXXXXXXXXXXXXXXXXXXXX

Verse (x2)
E[-4------------------------------------------------------------------------]
a[-6(x16)-4------6-----4----------------------------------------------------]
d[-6------6(x16)-8(x16)6(x16)-----------------------------------------------]
g[--------6------8-----6----------------------------------------------------]
b[--------------------------------------------------------------------------]
e[--------------------------------------------------------------------------]
   XXXXXXXXXXXXXXXXXXXXXX(on last 4-4-6, after muting 12th stroke, unmute)
I'm so rushed off my feet 
Looking for Gordon Street
So much I need to say
I'm sorry that it's all on her wedding day
Cos she's so right for me
Her daddy disagrees
He's always hated me
Because I never got a J-O-B

Bridge
E[--------------------------------------------------------------------------]
a[-666-444------------------------------------------------------------------]
d[-888-666------------------------------------------------------------------]
g[-888-666------------------------------------------------------------------]
b[--------------------------------------------------------------------------]
e[--------------------------------------------------------------------------]

Cos she's mine

Chorus
E[-4------------------------------------------------------------------------]
a[-6(x16)-4------6-----4-----6-----4----------------------------------------]
d[-6------6(x16)-8(x8)-6(x8)-8(x9)-6(x7)------------------------------------]
g[--------6------8-----6-----8-----6----------------------------------------]
b[--------------------------------------------------------------------------]
e[--------------------------------------------------------------------------]
                                   XXXXXXX

And I'm glad I crashed the wedding
It's better than regretting
Could've been a loser kid
And ran away and hid
But it's the best thing that I ever did
 
E[-4-------------4----------------------------------------------------------]
a[-6(x16)-4------6(x8)-4-----6-------44-------------------------------------]
d[-6------6(x16)-6-----6(x8)-8(x8)---66-------------------------------------]
g[--------6------------6-----8-------66-------------------------------------]
b[--------------------------------------------------------------------------]
e[--------------------------------------------------------------------------]
                 XXXXXXXXXXXXXXXXX

Cos true love lasts forever
And now we're back together
As if he never met her
So looking back
I'm glad I crashed the wedding

Riff
E[-4------------------------------------------------------------------------]
a[-6(x8)-4-----6------------------------------------------------------------]
d[-6-----6(x8)-8(x16)-------------------------------------------------------]
g[-------6-----8------------------------------------------------------------]
b[--------------------------------------------------------------------------]
e[--------------------------------------------------------------------------]


Verse 2 (same as verse 1, but with different lyrics, and only play guitar part once

Her neighbours spred the word and
My mum cried when she heard
I stole my girl away

Bridge (instead of "Cos she's mine") it's:

Just in time

Chorus (Same)

And I'm glad I crashed the wedding
It's better than regretting
Could've been a loser kid
And rand away and hid
I said I'd do it and I did
Cos true love lasts forever
And now we're back together
As if he never met her
So looking back
I'm glad I crashed the wedding

Bridge 2
E[-4------------------------------------------------4----------------------]
a[-6(x16)--4-----6-----6-6-----6-4-----6------4-66--6(x4)-4----------------]
d[-6-------6(x8)-8(x8)-8-8(x2)-8-6(x8)-8(x16)-6-88--6-----6(x4)------------]
g[---------6-----8-----8-8-----8-6-----8------6-88--------6----------------]
b[-------------------------------------------------------------------------]
e[-------------------------------------------------------------------------]
           XXXXXXXXXXX   XXXXX   XXXXXXXXXXX

(Come in on 10th stroke of first 4-6-6)
Don't waste time being
Mad at me for taking her away
Cos anyway she didn't want to stay
So please believe me when I say
She's glad I crashed the wedding
It's better than regretting

Play bridge with the following lyics:

The ring she got was lame
She couldn't take the blame
She didn't want a silly second name

And then play the appropriate part of chorus

Cos true love lasts forever
And now we're back together
He might as well forget her
So looking back
I'm glad I crashed the wedding

Repeat chorus with "ring she got" part instead of "Could have been" twice, then end on:

E[-4-3---------------------------------------------------------------------]
a[-6-5---------------------------------------------------------------------]
d[-6-5---------------------------------------------------------------------]
g[-------------------------------------------------------------------------]
b[-------------------------------------------------------------------------]
e[-------------------------------------------------------------------------]
Let 3-5-5 ring for a second and then pull off strings

Well there you go I hope it helped all of the other tabs are wrong
:)
            

comments powered by Disqus
↑ Back to top | Busted Tabs for Crashed The Wedding. Lyrics for acoustic guitar and electric guitar. Tablatures and chords are parodies/interpretations of the original songs. You may use it for private study, scholarship, research or language learning purposes only