>
 >
Crashed The Wedding

Crashed The Wedding Guitar Tabs

Busted - Crashed The Wedding chords, tabs, tablatures, lyrics

Guitar lessons | Add/correct | Request | Top 50 tabs Artists:  A B C D E F G H I J K L M N O P Q R S T U V W X Y Z 0-9

Crashed The Wedding Guitar Tabs – Busted

CD, Sheet music, Poster

Do you like Crashed The Wedding? Share with your friends now
Bass TabsChordsChords v2Chords v3Chords v4TabsTabs v2Tabs v3Tabs v4UkuleleUkulele v2
                               CRASHED THE WEDDING
                              As recorded by Busted
                  (From the 2003 Album A PRESENT FOR EVERYONE)

Words and Music by James Bourne & Tom Fletcher

           A                    D                    E                   F#m
      x 0 2 2 2 x          x x 0 2 3 2          0 2 2 1 0 0          2 4 4 2 2 2

Gtr I (D# G# C# F# A# D#) - 'Rhythm 1'
Gtr II (D# G# C# F# A# D#) - 'Rhythm 2'
Gtr III (D# G# C# F# A# D#) - 'Lead 1'
Gtr IV (D# G# C# F# A# D#) - 'Acoustic'
Gtr V (D# G# C# F# A# D#) - 'Clean'
Gtr VI (D# G# C# F# A# D#) - 'Keyboards'

                              Intro
  Q=180
 4/4
  Gtr VI                       Gtr III
  H    Q.   E   Q  Q  Q  Q     E E  Q   Q   E E   +E  E E  E E  E Q
|-5----4------|-2--0--------||------------------|-------------------|
|-4----4----4-|-------3-----||-----12--10-----9-|-(9)---9h10--------|
|-5----5------|----------4--||---9----------9---|-----9------9h11-9-|
|-4----6------|-------0-----||------------------|-------------------|
|-------------|-4-----------||------------------|-------------------|
|-------------|-------------||------------------|-------------------|
|
|                              Gtrs I, II
| W             W              Q    Q   E E E E   +E  E Q    E  E Q
|-------------|-------------||------------------|-------------------|
|-------------|-------------||------------------|-------------------|
|-------------|-------------||-2----2---2-2-2-2-|-(2)-2-2----2--2-2-|
|-------------|-------------||-2----2---2-2-2-2-|-(2)-2-2----2--2-2-|
|-------------|-------------||-0----0---0-0-0-0-|-(0)-0-0----0--0-0-|
|-------------|-------------||------------------|-------------------|


  E E  Q   Q   E E   +E  E E  E E  E Q     E E  Q   Q   E  E
|------------------|---------------------|-------------------|
|-----12--10-----9-|-(9)---9h10----------|-----12--10------9-|
|---9----------9---|-----9------9h11-9---|---9----------9----|
|-7----------------|---------------------|-7-----------------|
|------------------|---------------------|-------------------|
|------------------|---------------------|-------------------|
|
| Q    Q   E E E E   +E  E Q    E  E E E   Q    Q   E E E  E
|------------------|---------------------|-------------------|
|------------------|---------------------|-------------------|
|-7----7---7-7-7-7-|-(7)-7-7----7--7-7---|-9----9---9-9-9-11-|
|-7----7---7-7-7-7-|-(7)-7-7----7--7-7---|-9----9---9-9-9-11-|
|-5----5---5-5-5-5-|-(5)-5-5----5--5-5---|-7----7---7-7-7--9-|
|------------------|-------------------0-|-------------------|


   +E   E  E  E  E  E  Q    E E E E E E E E    E  E  E  E E E E E
|-------------------------|-----------------|---------------------||
|--(9)-----9h10-----------|-----------------|---------------------||
|-------9--------9h11--9--|-2-2-2-2S9-9-9-9S|=14-14-14-14S9-9-9-9-||
|-------------------------|-----------------|---------------------||
|-------------------------|-----------------|---------------------||
|-------------------------|-----------------|---------------------||
|
|  +E   E  Q     E  E  Q    E E E E E E E E    E  E  E  E E E E E
|-------------------------|-----------------|---------------------||
|-------------------------|-----------------|---------------------||
|-(11)-11-11----11-11-11--|-7-7-7-7-7-7-7-7-|--7--7--7--7-7-7-7-7-||
|-(11)-11-11----11-11-11--|-7-7-7-7-7-7-7-7-|--7--7--7--7-7-7-7-7-||
|--(9)--9--9-----9--9--9--|-5-5-5-5-5-5-5-5-|--5--5--5--5-5-5-5-5-||
|-------------------------|-----------------|---------------------||


 Verse
  A                                     D
  Gtr IV
  Q   Q   E E Q      Q    Q   E E Q      Q    Q   E E Q      Q    Q   E E Q
  |   |   | | |      |    |   | | |      |    |   | | |      |    |   | | |
  /   /   / / /      /    /   / / /      /    /   / / /      /    /   / / /

  W                 +W                  +W                  +W
|-----------------|-------------------|-------------------|--------------------|
|-----------------|-------------------|-------------------|--------------------|
|-2---------------|-(2)---------------|-(2)---------------|-(2)----------------|
|-----------------|-------------------|-------------------|--------------------|
|-----------------|-------------------|-------------------|--------------------|
|-----------------|-------------------|-------------------|--------------------|
|
| Gtr II
| PM------------------------------------------------------------------------|
| E E E E E E E E    E  E E E E E E E    E  E E E E E E E    E  E E E E E E E
|-----------------|-------------------|-------------------|--------------------|
|-----------------|-------------------|-------------------|--------------------|
|-----------------|-------------------|-------------------|--------------------|
|-----------------|-------------------|-------------------|--------------------|
|-0-0-0-0-0-0-0-0-|--0--0-0-0-0-0-0-0-|--5--5-5-5-5-5-5-5-|--5--5-5-5-5-5-5-5--|
|-----------------|-------------------|-------------------|--------------------|


  E                                   F#m               D
  Q   Q   E E Q     Q   Q   E E Q     Q   Q   E E Q     Q   Q   E E Q
  |   |   | | |     |   |   | | |     |   |   | | |     |   |   | | |
  /   /   / / /     /   /   / / /     /   /   / / /     /   /   / / /

  PM--------------------------------------------------------|
  E E E E E E E E   E E E E E E E E   E E E E E E E E   E E E E E E E E
|-----------------|-----------------|-----------------|------------------||
|-----------------|-----------------|-----------------|------------------||
|-----------------|-----------------|-----------------|-------7-7-7-7-7--||
|-----------------|-----------------|-----------------|-------7-7-7-7-7--||
|-7-7-7-7-7-7-7-7-|-7-7-7-7-7-7-7-7-|-9-9-9-9-9-9-9-0-|-5-5-5-5-5-5-5-5--||
|-----------------|-----------------|-----------------|------------------||


    A                                   D
    Q   Q   E E Q     Q   Q   E E Q     Q   Q   E E Q     Q   Q   E E Q
    |   |   | | |     |   |   | | |     |   |   | | |     |   |   | | |
    /   /   / / /     /   /   / / /     /   /   / / /     /   /   / / /

    PM------------------------------------------------------------------|
    E E E E E E E E   E E E E E E E E   E E E E E E E E   E E E E E E E E
||------------------|-----------------|-----------------|-----------------|
||o-----------------|-----------------|-----------------|-----------------|
||------------------|-----------------|-----------------|-----------------|
||------------------|-----------------|-----------------|-----------------|
||o-0-0-0-0-0-0-0-0-|-0-0-0-0-0-0-0-0S|=5-5-5-5-5-5-5-5-|-5-5-5-5-5-5-5-5-|
||------------------|-----------------|-----------------|-----------------|


  E                                   F#m               D
  Q   Q   E E Q     Q   Q   E E Q     Q   Q   E E  Q    Q  Q   E  E Q
  |   |   | | |     |   |   | | |     |   |   | |  |    |  |   |  | |
  /   /   / / /     /   /   / / /     /   /   / /  /    /  /   /  / /

  PM--------------------------------------------|
  E E E E E E E E   E E E E E E E E   E E E E E E  Q    Q  Q  +E  E Q
|-----------------|-----------------|-----------------|-----------------|
|-----------------|-----------------|-----------------|-----------------|
|-----------------|-----------------|-------------11S=|=7--7--(7)-7-7---|
|-----------------|-----------------|-------------11S=|=7--7--(7)-7-7---|
|-7-7-7-7-7-7-7-7-|-7-7-7-7-7-7-7-7-|-9-9-9-9-9-9--9S=|=5--5--(5)-5-5---|
|-----------------|-----------------|-----------------|-----------------|


  Gtrs I, II
  E E Q  H      E E Q  H
|-------------|-------------||
|-------------|-------------||
|-9-9-9-------|-7-7-7-------||
|-9-9-9-------|-7-7-7-------||
|-7-7-7-------|-5-5-5-------||
|-------------|-------------||


 Chorus
  Q  Q  E E E E   +E  E Q  E E Q    Q  Q  E E E E   +E  E Q  E E E E
|---------------|-----------------|---------------|--------------------|
|---------------|-----------------|---------------|--------------------|
|-2--2--2-2-2-2-|-(2)-2-2--2-2-2--|-7--7--7-7-7-7-|-(7)-7-7--7-7-7-9S==|
|-2--2--2-2-2-2-|-(2)-2-2--2-2-2--|-7--7--7-7-7-7-|-(7)-7-7--7-7-7-9S==|
|-0--0--0-0-0-0-|-(0)-0-0--0-0-0--|-5--5--5-5-5-5-|-(5)-5-5--5-5-5-7S==|
|---------------|-----------------|---------------|--------------------|


   Q   H     +E  E   Q  H    Q
|------------------|------------|
|------------------|------------|
|-11--11----(11)-9-|-9--9----9--|
|-11--11----(11)-9-|-9--9----9--|
|--9---9-----(9)-7-|-7--7----7--|
|------------------|------------|


                     PM----------|
  Q  Q  E E E E   +E E E E E E E E   Q    Q   E E E E   +E  E Q    E  E Q
|---------------|------------------|------------------|---------------------|
|---------------|------------------|------------------|---------------------|
|-7--7--7-7-7-7-|-(7)--------------|-2----2---2-2-2-2-|-(2)-2-2----2--2-2---|
|-7--7--7-7-7-7-|-(7)--------------|-2----2---2-2-2-2-|-(2)-2-2----2--2-2---|
|-5--5--5-5-5-5-|-(5)5-5-5-5-5-5-5-|-0----0---0-0-0-0-|-(0)-0-0----0--0-0---|
|---------------|------------------|------------------|---------------------|
|
|       Gtr III
| H     H          H       H         E E  Q   Q   E E   +E  E E  E E  E Q
|---------------|------------------|------------------|---------------------|
|---------------|------------------|-----12--10-----9-|-(9)---9h10----------|
|-------9s======|=14s======9-------|---9----------9---|-----9------9h11-9---|
|---------------|------------------|------------------|---------------------|
|---------------|------------------|------------------|---------------------|
|---------------|------------------|------------------|---------------------|


                                          PM--------------------
  Q    Q   E E E E   +E  E Q    E  E Q    E  E E  E  E E  E  E
|------------------|--------------------|----------------------|
|------------------|--------------------|----------------------|
|-7----7---7-7-7-7-|-(7)-7-7----7--7-7--|----------------------|
|-7----7---7-7-7-7-|-(7)-7-7----7--7-7--|----------------------|
|-5----5---5-5-5-5-|-(5)-5-5----5--5-5--|-2--2-2--2--2-2--2--2-|
|------------------|--------------------|----------------------|
|
|                                         Gtr V
| E E  Q   Q   E E   +E  E E  E E  E Q    E  E E  E  E E  E  E
|------------------|--------------------|-9------10------12----|
|-----12--10-----9-|-(9)---9h10---------|---10------10------10-|
|---9----------9---|-----9------9h11-9--|------9-------9-------|
|-7----------------|--------------------|----------------------|
|------------------|--------------------|----------------------|
|------------------|--------------------|----------------------|


 ---------------------------------------|
  E  E  E E E  E E E   E  E  E E  E E E E
|--------------------|---------------------|
|--------------------|---------------------|
|--------------------|---------------------|
|--------------------|---------------------|
|-4--4--4-4-4--4-4-4-|-5--5--5-5--5-5-5-5--|
|--------------------|---------------------|
|
| E  E  E E E  E Q     E  E  E E  H
|---10------9--------|-9h10------10--------|
|------10-----10-----|------10-------------|
|-9-------9------9---|---------9-----------|
|--------------------|---------------------|
|--------------------|---------------------|
|--------------------|---------------------|


               1.
  q  Q  H      Q  Q  E E E E   +Q   Q  E E E E
|------------|---------------|-----------------|
|------------|---------------|-----------------|
|------------|-2--2--2-2-2-9-|-(9)--9--9-9-9s7-|
|-7----------|-2--2--2-2-2-9-|-(9)--9--9-9-9s7-|
|-5----------|-0--0--0-0-0-7-|-(7)--7--7-7-7s5-|
|------------|---------------|-----------------|


                                      2.
  Q  Q  E E E E   +E  E Q  E E Q      Q  Q  E E E E   +E  E Q  E E Q
|---------------|------------------||---------------|------------------||
|---------------|-----------------o||---------------|------------------||
|-7--7--7-7-7-9-|-(9)-9-9--9-9-9---||-2--2--2-2-2-2-|-(2)-2-2--2-2-2---||
|-7--7--7-7-7-7-|-(7)-7-7--7-7-7---||-2--2--2-2-2-2-|-(2)-2-2--2-2-2---||
|-5--5--5-5-5-5-|-(5)-5-5--5-5-5--o||-0--0--0-0-0-0-|-(0)-0-0--0-0-0---||
|---------------|------------------||---------------|------------------||


 Bridge
  Gtr V
  Q.     E +Q    Q     Q.     E +Q    Q
|--------------------|--------------------|
|--------------------|--------------------|
|--------2-(2)-------|--------2-(2)-------|
|----------------2---|--------------------|
|-2------------------|-4--------------4---|
|--------------------|--------------------|
|
| Gtr II
| PM---------------------------------------
| E  E E E  E  E E E   E  E E E  E  E E E
|--------------------|--------------------|
|--------------------|--------------------|
|--------------------|--------------------|
|--------------------|--------------------|
|-2--2-2-2--2--2-2-2-|-4--4-4-4--4--4-4-4-|
|--------------------|--------------------|


  Q.     E +Q    Q     H       H
|--------------------|------------------|
|--------------------|-2----------------|
|--------2-(2)-------|---------2--------|
|-0--------------0---|------------------|
|--------------------|------------------|
|--------------------|------------------|
|
|----|   PM|     PM------------------|
| E  E E E  E  E E E   E E E E E E E E
|--------------------|------------------|
|--------------------|------------------|
|------7-------7-----|------------------|
|------7-------7-----|------------------|
|-5--5---5--5----5-5-|-5-5-5-5-5-5-5-1--|
|--------------------|------------------|


  Q.     E +Q    Q     Q.     E +Q    Q     Q.     E +Q    Q     W
|--------------------|--------------------|--------------------|------||
|--------------------|--------------------|--------------------|-2----||
|--------2-(2)-------|--------2-(2)-------|--------2-(2)-------|------||
|----------------2---|--------------------|-0--------------0---|------||
|-2------------------|-4--------------4---|--------------------|------||
|--------------------|--------------------|--------------------|------||
|
| PM-----------------------------------------------|
| E  E E E  E  E E E   E  E E E  E  E E E   E  E E E  E  E E E   W
|--------------------|--------------------|--------------------|------||
|--------------------|--------------------|--------------------|------||
|--------------------|--------------------|-----------7--7-7-7-|-9----||
|--------------------|--------------------|-----------7--7-7-7-|-7----||
|-2--2-2-2--2--2-2-1-|-4--4-4-4--4--4-4-4-|-5--5-5-5--5--5-5-5-|-5----||
|--------------------|--------------------|--------------------|------||


 Chorus
  Gtr IV
   H    Q.   E   H    H      Q.   E Q  E E   +E  E Q  E E E E
|-^5----5----5-|-5----5----|-5----5-5--5-5-|-(5)-5-5--5-5-5-5--|
|-^5----5----5-|-5----5----|-5----5-5--5-5-|-(5)-5-5--5-5-5-5--|
|-^6----6----6-|-6----6----|-7------7--7-7-|-(7)-7-7--7-7-7-7--|
|-^7----7----7-|-7----7----|-7------7--7-7-|-(7)-7-7--7-7-7-7--|
|-^7-----------|-----------|-5------5--5-5-|-(5)-5-5--5-5-5-5--|
|-^5-----------|-----------|---------------|-------------------|


                                       Gtr III
   W               W             H     H          H       H
|----------------|-------------|---------------|-------------------|
|----------------|-------------|---------------|-------------------|
|----------------|-------------|-------9s======|=14s======9--------|
|----------------|-------------|---------------|-------------------|
|----------------|-------------|---------------|-------------------|
|----------------|-------------|---------------|-------------------|
|
| Gtrs I, II
|                                                 PM--|
|  E  E  Q  H      E E Q  H      Q  Q  E E E E    E E E E E E E E
|----------------|-------------|---------------|-------------------|
|----------------|-------------|---------------|-------------------|
|-11-11-11-------|-9-9-9-------|-7--7--7-7-7-7-|--------7-7-7-7-7--|
|-11-11-11-------|-9-9-9-------|-7--7--7-7-7-7-|--------7-7-7-7-7--|
|--9--9--9-------|-7-7-7-------|-5--5--5-5-5-5-|--5-5-5-5-5-5-5-5--|
|----------------|-------------|---------------|-------------------|


  E E  Q   Q   E E   +E  E E  E E  E Q
|------------------|--------------------|
|-----12--10-----9-|-(9)---9h10---------|
|---9----------9---|-----9------9h11-9--|
|------------------|--------------------|
|------------------|--------------------|
|------------------|--------------------|
|
| Q    Q   E E E E   +E  E Q    E  E Q
|------------------|--------------------|
|------------------|--------------------|
|-2----2---2-2-2-2-|-(2)-2-2----2--2-2--|
|-2----2---2-2-2-2-|-(2)-2-2----2--2-2--|
|-0----0---0-0-0-0-|-(0)-0-0----0--0-0--|
|------------------|--------------------|


  E E  Q   Q   E E   +E  E E  E E  E Q
|------------------|---------------------|
|-----12--10-----9-|-(9)---9h10----------|
|---9----------9---|-----9------9h11-9---|
|-7----------------|---------------------|
|------------------|---------------------|
|------------------|---------------------|
|
| Q    Q   E E E E   +E  E Q    E  E Q
|------------------|---------------------|
|------------------|---------------------|
|-7----7---7-7-7-7-|-(7)-7-7----7--7-7---|
|-7----7---7-7-7-7-|-(7)-7-7----7--7-7---|
|-5----5---5-5-5-5-|-(5)-5-5----5--5-5---|
|------------------|---------------------|


  Gtr V
  E  E E  E  E E  E  E   E  E  E E E  E Q
|-9------10------12----|---10------9--------|
|---10------10------10-|------10-----10-----|
|------9-------9-------|-9-------9------9---|
|----------------------|--------------------|
|----------------------|--------------------|
|----------------------|--------------------|
|
| PM-----------------------------------------
| E  E E  E  E E  E  E   E  E  E E E  E E E
|----------------------|--------------------|
|----------------------|--------------------|
|----------------------|--------------------|
|----------------------|--------------------|
|-2--2-2--2--2-2--2--2-|-4--4--4-4-4--4-4-4-|
|----------------------|--------------------|


  E  E  E E  H         W
|-9h10------10-------|---------------||
|------10------------|---------------||
|---------9----------|---------------||
|--------------------|---------------||
|--------------------|---------------||
|--------------------|---------------||
|
|------------------|
| E  E  E E  E E E E   H    E E E E
|--------------------|---------------||
|--------------------|---------------||
|--------------------|-7----7-7-7-7--||
|--------------------|-7----7-7-7-7--||
|-5--5--5-5--5-5-5-5-|-5----5-5-5-5--||
|--------------------|---------------||


 Outro
  Gtrs I, II
  Q  Q  E E E E   +E  E Q  E E Q    Q  Q  E E E E
|---------------|-----------------|---------------|
|---------------|-----------------|---------------|
|-2--2--2-2-2-2-|-(2)-2-2--2-2-2--|-7--7--7-7-7-7-|
|-2--2--2-2-2-2-|-(2)-2-2--2-2-2--|-7--7--7-7-7-7-|
|-0--0--0-0-0-0-|-(0)-0-0--0-0-0--|-5--5--5-5-5-5-|
|---------------|-----------------|---------------|


  +E  E Q  E E E E    Q   H     +E  E   Q  H    Q
|------------------|------------------|------------|
|------------------|------------------|------------|
|-(7)-7-7--7-7-7-9S|=11--11----(11)-9-|-9--9----9--|
|-(7)-7-7--7-7-7-9S|=11--11----(11)-9-|-9--9----9--|
|-(5)-5-5--5-5-5-7S|==9---9-----(9)-7-|-7--7----7--|
|------------------|------------------|------------|


                     PM----------|
  Q  Q  E E E E   +E E E E E E E E   Q    Q   E E E E
|---------------|------------------|------------------|
|---------------|------------------|------------------|
|-7--7--7-7-7-7-|-(7)--------------|-2----2---2-2-2-2-|
|-7--7--7-7-7-7-|-(7)--------------|-2----2---2-2-2-2-|
|-5--5--5-5-5-5-|-(5)5-5-5-5-5-5-5-|-0----0---0-0-0-0-|
|---------------|------------------|------------------|
|
| Gtr III
| H     H          H       H         E E  Q   Q   E E
|---------------|------------------|------------------|
|---------------|------------------|-----12--10-----9-|
|-------9s======|=14s======9-------|---9----------9---|
|---------------|------------------|------------------|
|---------------|------------------|------------------|
|---------------|------------------|------------------|


  +E  E Q    E  E Q    Q    Q   E E E E
|--------------------|-------------------|
|--------------------|-------------------|
|-(2)-2-2----2--2-2--|-7----7---7-7-7-7--|
|-(2)-2-2----2--2-2--|-7----7---7-7-7-7--|
|-(0)-0-0----0--0-0--|-5----5---5-5-5-5--|
|--------------------|-------------------|
|
| +E  E E  E E  E Q    E E  Q   Q   E E
|--------------------|-------------------|
|-(9)---9h10---------|-----12--10-----9--|
|-----9------9h11-9--|---9----------9----|
|--------------------|-7-----------------|
|--------------------|-------------------|
|--------------------|-------------------|


                       PM--------------------
  +E  E Q    E  E Q    E  E E  E  E E  E  E
|--------------------|----------------------|
|--------------------|----------------------|
|-(7)-7-7----7--7-7--|----------------------|
|-(7)-7-7----7--7-7--|----------------------|
|-(5)-5-5----5--5-5--|-2--2-2--2--2-2--2--2-|
|--------------------|----------------------|
|
|                      Gtr V
| +E  E E  E E  E Q    E  E E  E  E E  E  E
|--------------------|-9------10------12----|
|-(9)---9h10---------|---10------10------10-|
|-----9------9h11-9--|------9-------9-------|
|--------------------|----------------------|
|--------------------|----------------------|
|--------------------|----------------------|


 ---------------------------------------|
  E  E  E E E  E E E   E  E  E E  E E E E
|--------------------|---------------------|
|--------------------|---------------------|
|--------------------|---------------------|
|--------------------|---------------------|
|-4--4--4-4-4--4-4-4-|-5--5--5-5--5-5-5-5--|
|--------------------|---------------------|
|
| E  E  E E E  E Q     E  E  E E  H
|---10------9--------|-9h10------10--------|
|------10-----10-----|------10-------------|
|-9-------9------9---|---------9-----------|
|--------------------|---------------------|
|--------------------|---------------------|
|--------------------|---------------------|


  W          W          +W           q  Q  H
|----------|----------|------------|------------*|
|----------|----------|------------|------------*|
|-9--------|----------|------------|------------*|
|-7--------|-7--------|-(7)--------|-6----------*|
|-5--------|-7--------|-(7)--------|-6----------*|
|----------|-5--------|-(5)--------|-4----------*|


Duration Legend
---------------
W - whole; H - half; Q - quarter; E - 8th; S - 16th; T - 32nd; X - 64th; a - acciaccatura
+ - note tied to previous; . - note dotted; .. - note double dotted
Uncapitalized letters represent notes that are staccato (1/2 duration)
Irregular groupings are notated above the duration line
Duration letters will always appear directly above the note/fret number it represents the
duration for.  Duration letters with no fret number below them represent rests.  Multi-
bar rests are notated in the form Wxn, where n is the number of bars to rest for.  Low
melody durations appear below the staff

Tablature Legend
----------------
 h   - hammer-on
 p   - pull-off
 b   - bend
 pb  - pre-bend
 r   - bend release (if no number after the r, then release immediately)
 /\  - slide into or out of (from/to "nowhere")
 s   - legato slide
 S   - shift slide
  - natural harmonic
[n]  - artificial harmonic
n(n) - tapped harmonic
 ~   - vibrato
 tr  - trill
 T   - tap
 TP  - trem. picking
 PM  - palm muting
\n/  - tremolo bar dip; n = amount to dip
 \n  - tremolo bar down
 n/  - tremolo bar up
/n\  - tremolo bar inverted dip
 =   - hold bend; also acts as connecting device for hammers/pulls
 <>  - volume swell (louder/softer)
 x   - on rhythm slash represents muted slash
 o   - on rhythm slash represents single note slash

Misc Legend
-----------
 |  - bar
||  - double bar
||o - repeat start
o|| - repeat end
*|  - double bar (ending)
 :  - bar (freetime)
 $  - Segno
 &  - Coda
Tempo markers -  = BPM(8/16=s8/s16), where s8 = swing 8ths, s16 = swing 16ths


***************************************************************************************
***************************************************************************************





Comments


Popular Busted tabs & chords
Runaway Train Chords
What I Go To School For Chords
Better Than This Tabs
Crash And Burn Tabs
What I Go To School For Live Tabs
When The Day Turns Into Night Tabs
Year 3000 2 Tabs
Fall At Your Feet Ukulele
Mrs Robinson Ukulele
Mummy Trade Ukulele


Song lyrics



↑ Back to top | Tablatures and chords are parodies/interpretations of the original songs. You may use it for private study, scholarship, research or language learning purposes only
© 2014 AZChords.com Contact us | Privacy policy | DMCA | Add/correct tabs | Request tabs | Top 50 tabs