» » »

Bush, Swallow Tabs (ver.3)

Artists:  A B C D E F G H I J K L M N O P Q R S T U V W X Y Z # 

Swallow Tabs (ver.3)

Bush Tabs
 Rating:
4/5 (4 votes)
Swallow lessons Tabs too difficult? Try these video lessons and learn fast
                Bush  -  Swallow


v = bend
/ = slide


verse
 e------------------------------------  
 B------------------------------------
 G--------6----6---------11-----11----  
 D--6-----6--6---6--11---11--11----11-
 A--6-----4---------11---9------------  
 E--4----------------9----------------  


 chorus
 e------------------------------------------------------
 B------------------------------------------------------
 G------------------------------------------------------
 D--6--6--6--6--11-11-11-11-12--12--12--12--8--8--8--8--
 A--6--6--6--6--11-11-11-11-12--12--12--12--8--8--8--8--
 E--4--4--4--4--9--9--9--9--10--10--10--10--6--6--6--6--

 e----------------------------
 B----------------------------
 G----------------------------
 D--6--6--6--6--11-11-11-11---
 A--6--6--6--6--11-11-11-11---
 E--4--4--4--4--9--9--9--9----


play verse palm puted for a bit then leave it for the bass
(just the strumming)


(heavy distortion)
 e--------------------------------------------------
 B--------------------------------------------------
 G------------6-------------------------------------
 D--6---------6----------6-----11-------------------
 A--6---------4----------6-----11-------------------
 E--4--------------------4------9-------------------
(well spaced out)


chorus 


solo
 E-----------------------------------------------
 B----------------------v-v-v-v-v-v-v-v-v-v------
 G--1-1-1-1-1-1-1-1-1-1-1-1-1-1-1-1-1-1-1-1------
 D-----------------------------------------------
 A-----------------------------------------------
 E-----------------------------------------------

 E-----------------------------------------------
 B-----------------------------------------------
 G---------3/4--5---5---5------------------------
 D--1-1-1-1-------5---5---5----------------------
 A-----------------------------------------------
 E-----------------------------------------------

 E----------8-------12/--------------------------
 B--9-9-9-9--------------------------------------
 G-----------------------------------------------
 D-----------------------------------------------
 A-----------------------------------------------
 E-----------------------------------------------

verse

chorus

end
            
Submit corrections

comments powered by Disqus
↑ Back to top | Bush Tabs for Swallow. Lyrics for acoustic guitar and electric guitar. Tablatures and chords are parodies/interpretations of the original songs. You may use it for private study, scholarship, research or language learning purposes only