>
 >
Glycerine Complete

Glycerine Complete Guitar Tabs

Bush - Glycerine Complete chords, tabs, tablatures, lyrics

Guitar lessons | Add/correct | Request | Top 50 tabs Artists:  A B C D E F G H I J K L M N O P Q R S T U V W X Y Z 0-9

Glycerine Complete Guitar Tabs – Bush

CD, Sheet music, Poster

Do you like Glycerine Complete? Share with your friends now
Tabs
Glycerine
Bush

Verse:

E--------------------------------------------------------------------------------| 
B--------------------------------------------------------------------------------| 
G-----------------------5---5--5---5---5--5--7---7--7---7---7-7--3--3-3--3--3-3--| 
D-3---3--3---3---3--3---5---5--5---5---5--5--7---7--7---7---7-7--3--3-3--3--3-3--| 
A-3---3--3---3---3--3---3---3--3---3---3--3--5---5--5---5---5-5--1--1-1--1--1-1--| 
E-1---1--1---1---1--1------------------------------------------------------------| 
 [F] must be your skin [C] that I'm sinkin’ [D] in must be for  [A#] real cause now I can feel
 [F] and I didn't mind [C] it's not my kind [D] not my time     [A#] to wonder why
 [F] everything's white[C] & everything's gray [D] now you’re here [A#] now you away
 [F] I don't want this [C] remember that    [D] I'll never forget[A#] where your at
 [F]		    [C] don't let the    [D] days go by      [A#]

Chorus 1:
      E------------------------------|
      B------------------------------|
      G------------555-5--3-333------|
      D---3--3--3--555-5--3-333------|
      A---3--3--3--333-3--1-111------|
      E---1--1--1--------------------|
Glycerine[F]      [C]    [A#] 
Glycerine[F]      [C]    [A#]

Verse 2:
[F] I'm never alone     [C] I'm alone all the time [D] are you at one         [A#] or do you lie
[F] we live in a wheel  [C] where everyone steals  [D] but when we rise       [A#] it's like strawberry fields
[F] if I treated you bad[C] you bruise my face     [D] couldn't love you more [A#] you got a beautiful taste 
[F]                     [C] don't let the          [D] days go by             [A#]
[F]        could have   [C] been easier on you     [D] I couldn't change      [A#] though I wanted to
[F]        Should have  [C] been easier by three   [D] our old friend fear    [A#] and you and me

Chorus 2:
      E------------------------------|
      B------------------------------|
      G------------555-5--3-333------|
      D---3--3--3--555-5--3-333------|
      A---3--3--3--333-3--1-111------|
      E---1--1--1--------------------|
Glycerine[F]      [C]    [A#] 
Glycerine[F]      [C]    [A#]

Post Chorus:
[F]                   [C] don't let the     [D] days go by      [A#] Glycerine
[F]                   [C] don't let the     [D] days go by      [A#]

Lead Guitar
-----------------------5-------5-------5--5--7-------7-------7--7--3--3-3--3--3-3--| 
-3-------3-------3--3--5---5-------5------5--7---7-------7---7--7--3--3-3--3--3-3--| 
-3---3-------3------3--3------------------3--5---------------5--5--1--1-1--1--1-1--| 
-1------------------1--------------------------------------------------------------| 
[F]                   [C]                   [D]                   [A#]          
[F]                   [C]                   [D] Glycerine         [A#] Glycerine
[F]                   [C]                   [D] Glycerine         [A#] Glycerine

Interlude:		
            [D]   Bad moon white [A#] again
            [D]   Bad moon white [A#] again
     As she [D]   falls around me[A#]

Verse 3:
 [F] I needed you more [C] when we wanted us less [D] I could not kiss   [A#] just regress
 [F] it might just be  [C] clear simple and plain [D] that's just fine   [A#] that's just one of my names 
 [F]                   [C] don't let the          [D] days go by         [A#]
 [F]        could have [C] been easier on you     [D] you                [A#] you

Chorus 3:
Glycerine[F]      [C]    [A#] 
Glycerine[F]      [C]    [A#]
Glycerine[F]      [C]    [A#] 
Glycerine[F]      [C]    [A#]





Comments


Popular Bush tabs & chords
Alien Chords
Float 1 Chords
Swallowed Chords
Body Tabs
Bush-Comedown Tabs
Inflatable 3 Tabs
Swallow 2 Tabs
Swim Tabs
Glycerine 2 Ukulele
Out Of This World Ukulele


Song lyrics



↑ Back to top | Tablatures and chords are parodies/interpretations of the original songs. You may use it for private study, scholarship, research or language learning purposes only
© 2014 AZChords.com Contact us | Privacy policy | DMCA | Add/correct tabs | Request tabs | Top 50 tabs