» » »

Bush, Glycerine Tabs (ver.2)

Artists:  A B C D E F G H I J K L M N O P Q R S T U V W X Y Z # 

Glycerine Tabs (ver.2)

Bush Tabs
Rating:
3/5 (7 votes)
Glycerine lessons Tabs too difficult? Try these video lessons and learn fast
                
pretty sure it's right.
If you want to play the guitar with the violin and cello, then you'll
need one
guitar for the violin and another for the cello.
, Main Riff:
E|-----------------------------------|
B|-----------------------------------|
G|----------5-5-5-5/7-7-7-7\3-3-3-3--|
D|-3-3-3-3--5-5-5-5/7-7-7-7\3-3-3-3--|
A|-3-3-3-3--3-3-3-3/5-5-5-5\1-1-1-1--|
E|-1-1-1-1---------------------------|
It must be your skin, I'm sinking in. 
It must be for real, cause now I can feel. 
And I didn't mind, it's not my kind. 
It's not my time, to wonder why. 
Everything's gone white, and everything's grey. 
Now you're here, now you're away. 
I don't want this, remember that. 
I'll never forget where you're at. 

(This part is a violin and it goes right before the 1st line of "don't
let the days....."
A cello plays the notes of each chord by the lead guitarist, but
another guitar can just play
the top notes of each chord.)
E|-------------------------------------|
B|-12--12s14--14-12--10--9-10--12--14--|
G|-------------------------------------| 
D|-------------------------------------| (violin parts)
A|-------------------------------------|
E|-------------------------------------|
Don't let the days go by, 

E|------------------------------|
B|------------------------------|
G|---------x-x-5-5-x-x-3-3-3-3--|
D|-3-3-3-3-x-x-5-5-x-x-3-3-3-3--|
A|-3-3-3-3-x-x-3-3-x-x-1-1-1-1--|
E|-1-1-1-1----------------------|
Glycerine glycerine. 

E|-----------------------------------|
B|-----------------------------------|
G|----------5-5-5-5/7-7-7-7\3-3-3-3--|
D|-3-3-3-3--5-5-5-5/7-7-7-7\3-3-3-3--|
A|-3-3-3-3--3-3-3-3/5-5-5-5\1-1-1-1--|
E|-1-1-1-1---------------------------|
I'm never alone, I'm alone all the time. 
Are you at one, or do you lie? 
We live in a wheel, where everyone steals. 
But when we rise, it's like strawberry fields. 
If I treated you bad, you bruise my face. 
Couldn't love you more. You've got a beautiful taste. 

E|---------------------------|
B|-12--12--11--9--11--12--14-|
G|---------------------------| (Violin parts)
D|---------------------------|
A|---------------------------|
E|---------------------------|
Don't let the days go by, could have been easier on you, 
I couldn't change though I wanted to. 
Should have been easier by three, 
our old friend fear and you and me. 

E|------------------------------|
B|------------------------------|
G|---------x-x-5-5-x-x-3-3-3-3--|
D|-3-3-3-3-x-x-5-5-x-x-3-3-3-3--|
A|-3-3-3-3-x-x-3-3-x-x-1-1-1-1--|
E|-1-1-1-1----------------------|
Glycerine, glycerine. 

E|-----------------------------------|
B|-----------------------------------|
G|----------5-5-5-5/7-7-7-7\3-3-3-3--| (Guitar parts)
D|-3-3-3-3--5-5-5-5/7-7-7-7\3-3-3-3--|
A|-3-3-3-3--3-3-3-3/5-5-5-5\1-1-1-1--|
E|-1-1-1-1---------------------------|

E|-------------------------------|
B|---12--12--11--9--11--12--14---|
G|-------------------------------| (Violin parts)
D|-------------------------------|
A|-------------------------------|
E|-------------------------------|
Don't let the days go by. 
Glycerine. 
Don't let the days go by. Ah.
Glycerine. Glycerine. 
Oh, glycerine. Glycerine. 

(On this part, the guitar and bass stop playing and the violin comes in
and plays the
following until it gets right before "Well, that's just fine..."
The parts inside the parentheses are the parts that the cello plays.)
E|----------------------------------------------------------------------|
B|-12--11---9------------11h12p11----14-----11--12-------------------12-|
G|----------------------------------------------------------------------|
D|----------------------------------------------------------------------|
A|----------(7--5-4-5-7s5-4-5--2)---------------------------------------|
E|------------------------------------------------(7--5-4-5-7s5-4-5--10)|

E|---------12--11---9--------------------------------------------------|
B|-11---9------------------12--11---9---------11h12p11---14------11--12|
G|---------------------------------------------------------------------|
D|---------------------------------------------------------------------|
A|---------------------------------------------------------------------|
E|---------------------------------------------------------------------|

E|-------------12--11---9-|
B|-12--11---9-------------|
G|------------------------|
D|------------------------|
A|------------------------|
E|------------------------|
Bad moon wine again. 
Bad moon wine again, 
and she falls around me. 

E|-----------------------------------|
B|-----------------------------------|
G|----------5-5-5-5/7-7-7-7\3-3-3-3--|
D|-3-3-3-3--5-5-5-5/7-7-7-7\3-3-3-3--|
A|-3-3-3-3--3-3-3-3/5-5-5-5\1-1-1-1--|
E|-1-1-1-1---------------------------|
I needed you more when you wanted us less. 
Could not kiss, just regress. 
It might just be clear, simple and plain. 
Well, that's just fine, that's just one of my names. 
Don't let the days go by. 
Could have been easier on you, you, you, 

E|-----------------------------|
B|-----------------------------|
G|--------x-x-5-5-x-x-3-3-3-3--|
D|3-3-3-3-x-x-5-5-x-x-3-3-3-3--|
A|3-3-3-3-x-x-3-3-x-x-1-1-1-1--|
E|1-1-1-1----------------------|
Glycerine. Glycerine. Glycerine. Glycerine. 
            
Submit corrections

comments powered by Disqus
↑ Back to top | Bush Tabs for Glycerine. Lyrics for acoustic guitar and electric guitar. Tablatures and chords are parodies/interpretations of the original songs. You may use it for private study, scholarship, research or language learning purposes only