>
 >
Fugitive

Fugitive Guitar Tabs

Bush - Fugitive chords, tabs, tablatures, lyrics

Guitar lessons | Add/correct | Request | Top 50 tabs Artists:  A B C D E F G H I J K L M N O P Q R S T U V W X Y Z 0-9

Fugitive Guitar Tabs – Bush

CD, Sheet music, Poster

Do you like Fugitive? Share with your friends now
Tabs
This is yet another interesting song off of Bush's latest release, Golden State.

main: gtr1
------------------------------------------------------------|
------------------------------3-3--3-3--3-3--3-3--3-3--3-3--|
------------------------------2-2--2-2--2-2--2-2--2-2--2-2--|
--4-4--4-4--4-4--4-4--4-4--4--0-0--0-0--0-0--0-0--0-0--0-0--|
--4-4--4-4--4-4--4-4--4-4--4--0-0--0-0--0-0--0-0--0-0--0-0--|
--4-4--4-4--4-4--4-4--4-4--4--0-0--0-0--0-0--0-0--0-0--0-0--|

main: gtr2 (enters w/ band and drops out during parts of verse)
(only plays 2nd bar w/ last verse line)
--------------------------------|--------------------------|
----------7-----7---------7--\--|--------3--------------3--|
--/6--6-6-6--6--6-6--4h6--6--\--|--2------2--0h2-----2-----|
--/4--4-4-4-----4-4---4---------|--0-0-------0-----0-------|
--------------------------------|--------------------------|
--------------------------------|--------------------------|

last verse line: gtr1
-----------------------------------------------------|
-----------------------------------------------------|
-11-----------9-----11--------------9------11--------|
-11-11-11-11--11-11-11-11--11-11-11-11--11-11-11-11--|
-9--9--9--9---9--9---9-9---9--9--9--9---9--9--9--9---|
-----------------------------------------------------|

-----------------------------------------|
-----------------------------------------|
-----7----------5----7-----5----------7--|
--\--7-7-7-7--7-7-7-7--7-7-7-7--7-7-7-7--|
--\--5-5-5-5--5-5-5-5--5-5-5-5--5-5-5-5--|
-----------------------------------------|

prechorus: both gtrs just play the B and G.  gtr3 plays ( )
---------------------------------------------------|
--------------------------------------(6^~~~)------|
--4--4--4--4--4--4---------------------------------|
--4--4--4--4--4--4--5--5--5--5--5--5--(4~~~~)------|
--2--2--2--2--2--2--5--5--5--5--5--5---------------|
--------------------5--5--5--5--5--5---------------|

chorus: both gtrs play a B and G.  (gtr3 plays the bends like during the prechorus)
------------------------------------------------|
------------------------------------------------|
------------------------------------------------|
--9-9-9-9--9-9--9-9--9\--5-5-5-5--5-5--5-5--5/--|
--9-9-9-9--9-9--9-9--9\--5-5-5-5--5-5--5-5--5/--|
--9-9-9-9--9-9--9-9--9\--5-5-5-5--5-5--5-5--5/--|

bridge: mostly gtr2 fills w/ heavy wah, light chorus& tremelo fx
some sounds like it could have abackwards gtr fx
---------------------------------|------------|
--7-----7-\--5-------------------|----*9*----|
--6-----6-\--4-------------------|-----------|
--4-----4-\--2-----2/4----/6^----|-----------|
---------------------------------|-----------|
---------------------------------|-----------|

then there's a build up that gtr1 plays.  it's just an F3 chord
-----------|
-----------|
-----------|
--4-4-4-4--|
--4-4-4-4--|
--4-4-4-4--|

solo: gtr2 (over gtr1's main riff played w/ different rhythm)
trill pick the entire solo
-!------------------------------------------------------------------!
-!------------------------------------------------------------------!
-!-14-----13------14-----13----14----11----13^----^----11---\9--/11-!
-!------------------------------------------------------------------!
-!------------------------------------------------------------------!
-!------------------------------------------------------------------!

-!---------------------------------------------------------!
-!---------------------------------------------------------!
-!---------------------------------------------------------!
-!--10/11---11/12---\11---11/12\11---/11--/12---/14---16---!
-!---------------------------------------------------------!
-!---------------------------------------------------------!

that's about all the riffs that are important.  There are various guitar overdubs that i didn't bother figuring out because they are necessary to play the song (that and i didn't figure all of them out!!).  just remember that almost before every section of the song they break it up w/ falling back on a F# (before verses, and bridge...)

key:
! (trill pick)- alternate picking very fast
^ - bend the note up and down accordingly
\ & / - slide up and down the fret to the note
* (harmonic)- lightly fret the note w/o pressing down on the neck
~- let it sustain through to the next time you play it
h- hammer on

arial.10pnt.western
Thanks for you time, keep rockin!
jimi-james brewer





Comments


Popular Bush tabs & chords
Communicator 1 Bass Tabs
History 1 Bass Tabs
Prizefighter Bass Tabs
Body 1 Tabs
Breathe In Breathe Out Tabs
Glycerin Tabs
Machine Head Tabs
People That We Love Tabs
Swallowed 1 Tabs
Out Of This World Ukulele


Song lyrics



↑ Back to top | Tablatures and chords are parodies/interpretations of the original songs. You may use it for private study, scholarship, research or language learning purposes only
© 2014 AZChords.com Contact us | Privacy policy | DMCA | Add/correct tabs | Request tabs | Top 50 tabs