>
 >
Body 1

Body 1 Guitar Tabs

Bush - Body 1 chords, tabs, tablatures, lyrics

Guitar lessons | Add/correct | Request | Top 50 tabs Artists:  A B C D E F G H I J K L M N O P Q R S T U V W X Y Z 0-9

Body 1 Guitar Tabs – Bush

CD, Sheet music, Poster

Do you like Body 1? Share with your friends now
TabsTabs v2Tabs v3
---------------------
                ---------------------

this is a really fucking good song written by Gavin Rossdale. A lot of
you people had requested it so I did my best at this song.  The riff to
this song is really cool.  It really isn't that hard so here it is


chords used for this song:
--------------------------
A |-----|  G |-----|  C |------|  D |--10--| E1 |-----|  B |-----|
  |-----|    |-----|    |------|    |--10--|    |-----|    |-----|
  |-----|    |-----|    |--9---|    |--11--|    |-----|    |-----|
  |--7--|    |--5--|    |--10--|    |--12--|    |--2--|    |--9--|
  |--7--|    |--5--|    |--10--|    |--12--|    |--2--|    |--9--|
  |--5--|    |--3--|    |--8---|    |--10--|    |--0--|    |--7--|

E2 |--12--|  F#M |--2--|
   |--12--|      |--2--|
   |--12--|      |--5--|
   |--14--|      |--4--|
   |--14--|      |--4--|
   |--12--|      |--2--|


guitar parts:
notations:
~=vibrato
h=hammer on
x=mute

this is the intro riff #1
E|-------------------------------------------------------------------------|
B|-------------------------------------------------------------------------|
G|-------------------------------------------------------------------------|
D|-----5h7--7~------5h7--7~------5h7-7--5h7-7-7--5h7-7-----5h7-7-5h7--5----|
A|-5h7----------5h7----------5h7------------------------5h7-------------7~-|
E|-------------------------------------------------------------------------|

riff #2
while on guitar plays that intro riff, another plays this little slide part
E |------------------------------------------|
B |--///12~---///12--10~--10--8--10--7~--5~--|
G | -----------------------------------------| or something close 
D |------------------------------------------| to that
A |------------------------------------------|
E |------------------------------------------|


throughout the verse, the bass simply plays
(work with it)
G |--------------------------|
D |--------------------------|
A |--------------------------|
E |--5-5-x-5-x-5-x-5--5-5-5--|


*** at about .37 seconds into the song at the words, "will you....."
the guitar strums a G-chord and goes into a slight variation of riff #2

** at about .57 seconds into the song at the words, "wash the...."
the guitar strums a G-chord, then strums an A-chord, a B-chord, a C-chord,
and a D-chord.   the progression is G-A-B-C-D  (with one strum for each 
chord)


XXXXXXXXX-----for the words "will you come again....",
              the guitar plays this at about 1.07 (and other places)
   
   { play part A twice                       }  {play part B twice
    F#M                DM                       F#M            E2
E |-2-2-2-2-2-2-2-2-2--10-10-10-10-10-10-10-10--2------2-------12-12-12----|
B |-2-2-2-2-2-2-2-2-2--10-10-10-10-10-10-10-10--2------2-------12-12-12----|
G |-5-5-5-5-5-5-5-5-5--11-11-11-11-11-11-11-11--5------5-------12-12-12----|
D |-4-4-4-4-4-4-4-4-4--12-12-12-12-12-12-12-12--4------4--x-x--14-14-14-x--|
A |-4-4-4-4-4-4-4-4-4--12-12-12-12-12-12-12-12--4--4-4-4--x-x--14-14-14-x--|
E |-2-2-2-2-2-2-2-2-2--10-10-10-10-10-10-10-10--2--0-0-2--x-x--12-12-12-x--|
     Dm                          }
E |--10--10--10-10-10-10-10--10--|
B |--10--10--10-10-10-10-10--10--|  (second time through these parts
G |--11--11--11-11-11-11-11--11--|   you will play part A and part B
D |--12--12--12-12-12-12-12--12--|   a lot more times)
A |--12--12--12-12-12-12-12--12--|
E |--10--10--10-10-10-10-10--10--|
the chords are right, just work with the strumming pattern

then, at about 3.10 minutes into the song an E1-G-A progression is played
then, at about 3.42 minutes into the song an A-G-E1 progression is played

then a solo comes, you could use the A-minor penatonic scale in the 5th
position for the "psuedo solo"

E |----------------------5-8--|
B |------------------5-8------|
G |--------------5-7----------|
D |----------5-7--------------|
A |------5-7------------------|
E |--5-8----------------------|

lyrics
------

hush child - lay your sweet lips on me
this greed - bigger than you and me
will you come again
body
tongue tied and visceral third degree
feel warm - center of gravity
wash us all away
body never lies
will you come again
will we stay friends
oh you paralyze
there are times when i wish
that i was you
thick skinned - cities you drive me though
better than me - you're a woman
seven days and my system is free again
we rise - lose it on oblivion
falling away - sorry for the way
your child is on fire
lick these my ruby lips
drop your protein pills 
better just to lose yourself
we kiss we kiss we kiss
pretty words could never say
will you come again
--------------------------------------------

any questions, requests, comments, suggestions, corrections, or anything

this tab might seem kind of cryptic because of how confusing i made it,
but it really isn't, all the chords and parts are correct, just find out
where they go and how many times to play them, have fun

note: don't forget, when you download it, print it out in NOTEPAD in 
windows or else it will come out messed up

message: when i do this tab, it is because i am trying to help people out
and i enjoy it, i don't claim to be correct on anything, so i would 
aprecciate it that if i got something wrong, don't be a prick about it,
just e-mail me and i will happily fix it, like i fix my version of little 
things (which i tabbed out a step higher that it is really played)
thank you and enjoy the tab

oh.....i also figured out the beginning of monkey!  i listened to a live
bush album and i figured it out from there, i will work on the rest 
and post it later



Body by Bush
Written by Gavin Rossdale
This is a really good song that is made kind of difficult by the many fills.  The rhythm is kind of tricky as well.  I tried to tab out the rhythm as best I could.  Listen to the CD and do the best you can.

Guitar 1 begins playing this
Riff 1 
e----------------------------------------------------------
B----------------------------------------------------------
G----------------------------------------------------------
D-----5h7-7~-----5h7-7~-----5h7-7-5h7-7-7-5h7-7-----5h7-7--
A-5h7--------5h7--------5h7---------------------5h7--------
E----------------------------------------------------------

e----------------------------------------------------------
B----------------------------------------------------------
G----------------------------------------------------------
D----------------------------------------------------------
A-5h7-7-5--------------------------------------------------
E---------7------------------------------------------------

Then Guitar 2 jumps in playing this 
Fill A
e----------------------------------------------------------
B-/8~--/12--10--8-7-8-8~-5---------------------------------
G----------------------------------------------------------
D----------------------------------------------------------
A----------------------------------------------------------
E----------------------------------------------------------

Then comes a bass solo.  An A chord is thrown in and then a G chord.  Then in goes back to riff 1 with this fill

Fill B
e----------------------------------------------------------
B-/12/~/8/~/5----------------------------------------------
G----------------------------------------------------------
D----------------------------------------------------------
A----------------------------------------------------------
E----------------------------------------------------------

More bass solo.  Another A chord.  Then comes a G-A-B-C-D Chord progression.  Followed by this fill over riff 1

Fill C
e----------------------------------------------------------
B-15b-15--13-15-13--12-13-12-------------------------------
G----------------------------------------------------------
D----------------------------------------------------------
A----------------------------------------------------------
E----------------------------------------------------------


Chorus
e----------------------------------------------------------
B----------------------------------------------------------
G-------------------------7--7-7-7-x-x-7-7-7-7-------------
D-4--4-4-4--4-4-4-4-4--4--7--7-7-7-x-x-7-7-7-7-------------
A-4--4-4-4--4-4-4-4-4--4--5--5-5-5-x-x-5-5-5-5-------------
E-2--2-2-2--2-2-2-2-2--2-----------------------------------

then this fill is played over Riff 1
Fill D         [              really fast                   ]
e----------------------------------------------------------
B-5~-7~-8~-10~-13131313/14141414/15151515/16161616/17171717/
G----------------------------------------------------------
D----------------------------------------------------------
A----------------------------------------------------------
E----------------------------------------------------------

e----------------------------------------------------------
B-18b~-----------------------------------------------------
G----------------------------------------------------------
D----------------------------------------------------------
A----------------------------------------------------------
E----------------------------------------------------------

Then the verse is repeated and then play the chorus. At the end add this riff
Riff 2
e----------------------------------------------------------
B----------------------------------------------------------
G---------------9--7--7-7-7-x-x-7-7-7--7------------------
D-4-----4---4-4-9--7--7-7-7-x-x-7-7-7--7-------------------
A-4-4-4-4-4-4-4-7--5--5-5-5-x-x-5-5-5--5-------------------
E-2-0-0-2-0-2-2--------------------------------------------

Then play this riff
Riff 3
e----------------------------------------------------------
B----------------------------------------------------------
G----------------------------------------------------------
D-2-2--2-2-2-2--2-2-2--5-5-x-x-7--7-7-7--------------------
A-2-2--2-2-2-2--2-2-2--5-5-x-x-7--7-7-7--------------------
E-0-0--0-0-0-0--0-0-0--3-3-x-x-5--5-5-5--------------------

Followed by this riff
Riff 4
e----------------------------------------------------------
B----------------------------------------------------------
G----------------------------------------------------------
D-7-7--5-5--2----------------------------------------------
A-7-7--5-5--2----------------------------------------------
E-5-5--3-3--0----------------------------------------------

Over Riff 3 play this fill once
Fill E
e----------------------------------------------------------
B-15b-15-13-15-13-15-17b-17~-------------------------------
G----------------------------------------------------------
D----------------------------------------------------------
A----------------------------------------------------------
E----------------------------------------------------------

Then comes the solo      [really fast]  [really fast]
e----------------------------------------------------------
B-6h8-6h8-7~--6p5-6h8-7~--------------55555555-5b--------
G-------------------------33333333-3b----------------------
D----------------------------------------------------------
A----------------------------------------------------------
E----------------------------------------------------------

Somewhere over the solo this fill is played followed by a pick slide
Fill F(or something like this)
e----------------------------------------------------------
B-12~-15~-12~-8~------------------------------------------
G----------------------------------------------------------
D----------------------------------------------------------
A----------------------------------------------------------
E----------------------------------------------------------

Then back into riff 1 followed by a F# chord.  Then back into the chorus.

That's it.  Enjoy!





Comments


Popular Bush tabs & chords
Everything Zen 1 Bass Tabs
Straight No Chaser Chords
The Sound Of Winter Chords
40 Miles From The Sun Tabs
A Tendency To Start Fires 1 Tabs
Bone Driven Tabs
Broken Tv 1 Tabs
Peronal Hollowa Tabs
Strait No Chaser Tabs
Warm Machine 3 Tabs


Song lyrics



↑ Back to top | Tablatures and chords are parodies/interpretations of the original songs. You may use it for private study, scholarship, research or language learning purposes only
© 2014 AZChords.com Contact us | Privacy policy | DMCA | Add/correct tabs | Request tabs | Top 50 tabs