>
 >
A Tendency To Start Fires 1

A Tendency To Start Fires 1 Guitar Tabs

Bush - A Tendency To Start Fires 1 chords, tabs, tablatures, lyrics

Guitar lessons | Add/correct | Request | Top 50 tabs Artists:  A B C D E F G H I J K L M N O P Q R S T U V W X Y Z 0-9

A Tendency To Start Fires 1 Guitar Tabs – Bush

CD, Sheet music, Poster

Do you like A Tendency To Start Fires 1? Share with your friends now
Bass TabsTabsTabs v2

h hammer on
/ slide up
\ slide down
P.M. Palm Mute
A arpeggio

Gt1 Tabbed

Standard Tuning

----|----------------------------------------------|--|-----------------------|
----|----------------------------------------------|--|-----------------------|
----|----------------------------------------------|--|-----------------------|
----|-12h14--14-14-12-12h14--14-14-12-12h14--12-12-|--|-----------------------|
----|-12-----12-12-12-12-----12-12-12-12-----12-12-|--|-----------------------|
----|-x------x--x--x--x------x--x--x--x------x--x--|--|-----------------------|
   Intro

----|---------------------------------------|---------------------------------|
----|---------------------------------------|---------------------------------|
----|---------------------------------------|---------------------------------|
----|-12h14--14-14-12-12h14--14-14-12-12h14-|---------------------------------|
----|-12-----12-12-12-12-----12-12-12-12----|---------------------------------|
----|-x------x--x--x--x------x--x--x--x-----|---------------------------------|
   Intro end

-------|-----------------------------------------------------------|----------|
-------|-----------------------------------------------------------|----------|
-------|-5-7-7-7/9--------------------5-7-7-7/9--------------------|----------|
-------|-x-x-x-x---3-3--7-7-7-7--3-3--x-x-x-x---3-3--3/5--5-5-5-3--|----------|
-------|-3-5-5-5/7-1-1--5-5-5-5--1-1--3-5-5-5/7-1-1--1/3--3-3-3-1--|----------|
-------|-----------x-x--x-x-x-x--x-x------------x-x--x----x-x-x-x--|----------|
         Preverse


-------|---------|------------------------------------------------------------|
-------|---------|------------------------------------------------------------|
-------|-7---3---|------------------------------------------------------------|
-------|-7---3---|------------------------------------------------------------|
-------|-5---1---|------------------------------------------------------------|
-------|---------|------------------------------------------------------------|
         Verse Chords Pick


----|-------------------------------|--|-----------------------------|--------|
----|-------------------------------|--|-----------------------------|--------|
----|-------------------------------|--|-----------------------------|--------|
----|-3-3--10-10--7-7--5-5--5-7-5-0-|--|-3-3--10-10--7-7--5-5--5-7-5-|--------|
----|-3-3--10-10--7-7--5-5--5-7-5-0-|--|-3-3--10-10--7-7--5-5--5-7-5-|--------|
----|-x-x--x--x---x-x--x-x--x-x-x-x-|--|-x-x--x--x---x-x--x-x--x-x-x-|--------|
     Chorus                              Chorus end

-------|---------------------|--|-------|--|----------------------------------|
-------|---------------------|--|-------|--|----------------------------------|
-------|---------------------|--|---5-5-|--|----------------------------------|
-------|---------------------|--|---x-x-|--|----------------------------------|
-------|-1--3-3--1--3-3--/7--|--|-1-3-3-|--|----------------------------------|
-------|---------------------|--|-------|--|----------------------------------|
         Interlude


----|--------|--|-0-------------|---------------------------------------------|
----|--------|--|-1-------------|---------------------------------------------|
----|--------|--|-x-------------|---------------------------------------------|
----|--------|--|-3-------------|---------------------------------------------|
----|--------|--|-3-------------|---------------------------------------------|
----|--------|--|-x-------------|---------------------------------------------|
     Chorus       A  Chorus end





Comments


Popular Bush tabs & chords
History 3 Bass Tabs
Insect Kin Bass Tabs
Speed Kills 4/5 String Bass Tabs
Warm Machine Bass Tabs
American Eyes Tabs
Greedy Fly Tabs
Machinehead 6 Tabs
Mouth Tabs
The Sound Of Winter 1 Tabs
Letting The Cables Sleep Ukulele


Song lyrics



↑ Back to top | Tablatures and chords are parodies/interpretations of the original songs. You may use it for private study, scholarship, research or language learning purposes only
© 2014 AZChords.com Contact us | Privacy policy | DMCA | Add/correct tabs | Request tabs | Top 50 tabs