» » »

Bush, Alien Bass tabs (ver.1)

Artists:  A B C D E F G H I J K L M N O P Q R S T U V W X Y Z # 

Alien Bass tabs (ver.1)

Bush Tabs
 Rating:
4/5 (7 votes)
Alien lessons Tabs too difficult? Try these video lessons and learn fast
1
                

Group: Bush


This is another great creation made by Dave Parsons. It's a good, kinda far
out tune. But like every bush song, it's fun to play with a band.

Main Riff:

G |------------------------------------------------------------|
D |---11-----9-----7---7---7---2---4------4-----4-----4---4----|
A |-0-----0-----0----0---0---0---------0------0-----0---0---0--|
E |------------------------------------------------------------|

G |------------------------------------------------------------|
D |---11-----9----7---7---7---9---4-----4----4----4------------|
A |-0-----0-----0---0---0-------0----0-----0----0--------------|
E |------------------------------------------------------------|

Dave basically plays that for the whole song. Besides for the chours

Chours:
    A     G     D     B
G |---| |---| |---| |---|
D |---| |---| |---| |---|
A |---| |---| |-5-| |-2-|
E |-5-| |-3-| |---| |---|

Well that's about it.
Have fun

Roger N. O'Neal

==========================================================================
I  want  a  Slurpee  Damnit!!!!!!!!                    Citrus  Heights, CA
==========================================================================
            
Submit corrections

comments powered by Disqus
↑ Back to top | Bush Bass for Alien. Lyrics for acoustic guitar and electric guitar. 1 Tablatures and chords are parodies/interpretations of the original songs. You may use it for private study, scholarship, research or language learning purposes only