>
 >
All These Things I Hate (Revolve Around Me)

All These Things I Hate (Revolve Around Me) Guitar Tabs

Bullet For My Valentine - All These Things I Hate (Revolve Around Me) chords, tabs, tablatures, lyrics

Guitar lessons | Add/correct | Request | Top 50 tabs Artists:  A B C D E F G H I J K L M N O P Q R S T U V W X Y Z 0-9

All These Things I Hate (Revolve Around Me) Guitar Tabs – Bullet For My Valentine

CD, Sheet music, Poster

Do you like All These Things I Hate (Revolve Around Me)? Share with your friends now
Bass TabsChordsTabsTabs v2Tabs v3
-------------------------------------------------------------------------------
                             ALL THESE THINGS I HATE - Bullet For My Valentine
-------------------------------------------------------------------------------

Tuning: Dropped C

Guitar 1 - Padget (Clean)
Guitar 2 - Tuck (Distorted)
Guitar 3 - Padget (Distorted)



1st Verse (Guitar 1):  X2
D|-0-00-0-0000-0-00-0-0000-0-00-0-0000-0000-0000-|
A|-0-00-0-0000-0-00-0-0000-0-00-0-0000-0000-0000-|
F|-8-88-8-8888-6-66-6-6666-4-44-4-4444-3333-4444-|
C|-6-66-6-6666-4-44-4-4444-2-22-2-2222-1111-2222-|
G|-----------------------------------------------|
C|-----------------------------------------------|

D|-0-00-0-0000-0--0-0--0--0-0-0-0--0-00-0-0000-0000-0000-|
A|-0-00-0-0000-0--0-0--0--0-0-0-0--0-00-0-0000-0000-0000-|
F|-8-88-8-8888-11-1111-11-11111111-4-44-4-4444-3333-4444-| (11s, not 1s)
C|-6-66-6-6666-9--9-9--9--9-9-9-9--2-22-2-2222-1111-2222-|
G|-------------------------------------------------------|
C|-------------------------------------------------------| 


1st Pre-Chorus (Guitar 1)
D|-0-00-0-0000-000-000-|0-00-0-0000-000-000-|0-00-0-0000-0--------|
A|-0-00-0-0000-000-000-|0-00-0-0000-000-000-|0-00-0-0000-0--------|
F|-6-66-6-6666-888-666-|4-44-4-4444-888-666-|4-44-4-4444-3~-------|
C|-4-44-4-4444-666-444-|2-22-2-2222-666-444-|2-22-2-2222-1~-------|
G|---------------------|--------------------|---------------------|
C|---------------------|--------------------|---------------------|
                         play this part 2x

Chorus: X2

(Guitar 3) 
D|---------------------------------------------------------|
A|---------------------------------------------------------|
F|--------888888--------666666-----------------------------|
C|-66-6-6--------44-4-4--------2-2-22\1-1-11/2-2-22/4-4-44-|(1s, not 11s)
G|-66-6-6--------44-4-4--------2-2-22\1-1-11/2-2-22/4-4-44-|
C|-66-6-6--------44-4-4--------2-2-22\1-1-11/2-2-22/4-4-44-|

(Guitar 2)
D|---------------------------------------------------------|
A|---------------------------------------------------------|
F|---------------------------------------------------------|
C|-66-6-6-999999-44-4-4-888888-2-2-22\1-1-11/2-2-22/4-4-44-|(1s, not 11s)
G|-66-6-6--------44-4-4--------2-2-22\1-1-11/2-2-22/4-4-44-|
C|-66-6-6--------44-4-4--------2-2-22\1-1-11/2-2-22/4-4-44-|

Fill: X3

(Guitar 3)
D|----------|
A|----------|
F|----6-6h8-|
C|-66-------|
G|-66-------|
C|-66-------|

(Guitar 2)
D|----------|
A|----------|
F|----------|
C|-66-8-8h9-|
G|-66-------|
C|-66-------|

2nd Verse: X2 (Guitar 1)
D|--------------------------------------------------|
A|--------------------------------------------------|
F|--------8----------6----------4-------------------|
C|-----6---6------4----4------2---2-------1-----2---|
G|---6---6---6--4---4----4--2---2---2---1--1--2--2--|
C|-6----------4-----------2-----------1-----2-------|

2nd Pre Verse:  (Guitar 3)
D|--------------------------------------------|
A|--------------------------------------------|
F|-66666666/8888\6666\44444444/8888/10101010--|
C|-xxxxxxxx-xxxx-xxxx-xxxxxxxx-xxxx-x-x-x-x---|
G|-44444444/6666\4444\22222222/8888/8-8-8-8---|
C|--------------------------------------------|

2nd Pre Verse 2:
Guitar 2 Comes in here

(Guitar 2)
D|----------------------------|
A|----------------------------|
F|-66666666/8888\6666\4444-3~-|
C|-xxxxxxxx-xxxx-xxxx-xxxx-x--|
G|-44444444/6666\4444\2222-1~-|
C|----------------------------|

(Guitar 3 - at the same time)
D|------------------------------------------------|
A|------------------------------------------------|
F|-1212121212121212/14141414\12121212\10101010\9~-|
C|-xxxxxxxxxxxxxxxx-xxxxxxxx-xxxxxxxx-xxxxxxxx-x--|
G|-1010101010101010/12121212\10101010\8-8-8-8--7--|
C|------------------------------------------------|

Chorus X4

Bridge 1 X2

(Guitar 3)
D|---------------------------------------------|
A|---------------------------------------------|
F|----6-6h8----6-6h8----6-6h8----6-6h8---------|
C|-66-------66-------66-------66--------2~--4~-|
G|-66-------66-------66-------66--------2~--4~-|
E|-66-------66-------66-------66--------2~--4~-|
   ..       ..       ..       ..
(Guitar 2)
D|---------------------------------------------|
A|---------------------------------------------|
F|---------------------------------------------|
C|-66-8-8h9-66-8-8h9-66-8-8h9-66-8-8h9--2~--4~-|
G|-66-------66-------66-------66--------2~--4~-|
E|-66-------66-------66-------66--------2~--4~-|
   ..       ..       ..       ..
Bridge 2 X2

(Guitar 3)
D|-------------------------------------------|
A|-------------------------------------------|
F|----6-6h8----6-6h8--------6-6h8------------|
C|-66-------66-------666666-------66--2~--4~-|
G|-66-------66-------666666-------66--2~--4~-|
C|-66-------66-------666666-------66--2~--4~-|
   ..       ..       ......       ..
(Guitar 2)
D|-------------------------------------------|
A|-------------------------------------------|
F|-------------------------------------------|
C|-66-8-8h9-66-8-8h9-666666-8-8h9-66--2~--4~-|
G|-66-------66-------666666-------66--2~--4~-|
C|-66-------66-------666666-------66--2~--4~-|
   ..       ..       ......       ..

Bridge 3 (Both Guitars)X1
D|-------------|
A|-------------|
F|-------------|
C|-------------|
G|-------------|
C|-6b-6b-6b-6b-|

3rd Pre-Chorus X2(Both Guitars) 
D|---------------------------------------------|
A|---------------------------------------------|
F|---------4-3------------------4-6-3----------|
C|-22-2-2-----4-4444-666--22-2-2------4444-666-|
G|-22-2-2-------4444-666--22-2-2------4444-666-|
C|-22-2-2-------4444-666--22-2-2------4444-666-|

3rd Pre-Chorus 2 x1 

(Guitar 3)
D|-----------------------------|
A|-----------------------------|
F|-----------------------------|
C|-222222222222222222-11111111-| (those are 1s, not 11s)
G|-222222222222222222-11111111-|
C|-222222222222222222-11111111-|
                      ........
(Guitar 2)
D|-----------------------------------------|
A|----12---12---12---12---12---12----------|
F|--10---10---10---10---10---10------------|
C|-9----9----9----9----9----9-----11111111-| (those are 1s, not 11s) 
G|--------------------------------11111111-|
C|--------------------------------11111111-|
                                  ........
Chorus Variation (Both Guitars)
D|------------------------------------------------------|
A|------------------------------------------------------|
F|------------------------------------------------------|
C|-66666666-6------44444444-4-------2222\1111/2222/4444-|
G|-66666666-6------44444444-4-------2222\1111/2222/4444-|
C|-66666666-6------44444444-4-------2222\1111/2222/4444-|

Chorus X3

Fill X4

Ending x1

(Guitar 3)
D|----------|
A|----------|
F|-8~-6~-4~-|
C|----------|
G|----------|
C|----------|

(Guitar 2)
D|----------|
A|----------|
F|----------|
C|-9~-8~-6~-|
G|----------|
C|----------|

Thats all, pls rate and give comments.

Order Of Play:
1st Verse x2
1st Pre-Chorus x1
Chorus x2
Fill x3
2nd Verse x2
2nd Pre-Verse x2
2nd Pre-Verse 2 x1
Chorus x4
Bridge 1 x2
Bridge 2 x2
Bridge 3 x1
3rd Pre-Chorus x2
3rd Pre-Chorus 2 x1
Chorus Variation x1
Chorus x3
Fill x4
Ending x1

| /  slide up
| \  slide down
| h  hammer-on
| p  pull-off
| ~  vibrato
| +  harmonic
| x  Mute note
| b  bending
| .  palm muted
===============================================================================





Comments


Popular Bullet For My Valentine tabs & chords
All These Things I Hate Bass Tabs
Hearts Burst Into Fire 4 Bass Tabs
All These Things I Hate 1 Chords
Breaking Point Intro Tabs
Curses Tabs
Say Goodnight Acousitc Tabs
Tears Dont Fall 12 Tabs
Temper Temper Tabs
The End Tabs
All These Things I Hate Revolve Around Me Ukulele


Song lyrics



↑ Back to top | Tablatures and chords are parodies/interpretations of the original songs. You may use it for private study, scholarship, research or language learning purposes only
© 2014 AZChords.com Contact us | Privacy policy | DMCA | Add/correct tabs | Request tabs | Top 50 tabs