>
 >
Traces

Traces Guitar Tabs

Built To Spill - Traces chords, tabs, tablatures, lyrics

Guitar lessons | Add/correct | Request | Top 50 tabs Artists:  A B C D E F G H I J K L M N O P Q R S T U V W X Y Z 0-9

Traces Guitar Tabs – Built To Spill

CD, Sheet music, Poster

Do you like Traces? Share with your friends now
TabsTabs v2

Great song by an even greater band, enjoy!

Tuning:EADGBe

Intro:
Em G Am C x2

Main Riff: x2
e|-------2-3-------2-3--------------------------------------------------|
B|-0-1-0-----0-1-0-----1-0----------------------------------------------|
G|----------------------------------------------------------------------|
D|----------------------------------------------------------------------|
A|----------------------------------------------------------------------|
E|----------------------------------------------------------------------|

Verse One:

Em          G       Am           C
Day          light                  can never really

Em          G       Am  	C
hide          what’s      alive

Em  	    G	    Am  	C
I know it's hard sometimes For you to tell

Bm                 C                    D       Em        Bm
where you end And where the world begins

Em            G       Am          C
you dou your  best to      avoid assimilation

Bm                C   Am               D	Em	Bm
   guess thats the     best you can do.

Chorus:

C                      C                   Em      D
And though the parts of it that matter change

C
All traces disintegrate

Then play Main Riff: x2

Verse Two:

Em   G	    Am	     C
At   night   My       mind gets on this

Em    G     AM       C
Train  of    thought And can't get back off

Em		G     Am              C
And when you know      How few things there are worth knowing

Bm	  C		C	      D	    Em	    Bm
I suppose anyone who tries could forget

EM         G      Am              C
Responding now     To trains that crash before you

Bm           C         C                 D	Em	Bm
Never thought crashing could happen to you 

Then play Chorus

Then Main Riff x2

Solo:
e|-7p5/3-2-3-7p5/3-2-3-7p5/3-2-3--7-7-7-7-7-7-7-7-----------------------|
B|----------------------------------------------------------------------| x4
G|----------------------------------------------------------------------|
D|----------------------------------------------------------------------|
A|----------------------------------------------------------------------|
E|----------------------------------------------------------------------|

e|-----------------------------------------------------------------------------------------|
B|------------------------------------------------8/10\8-8/10\8-8/10\8-8/10\8-8/10\8-8/10\8|
G|7/9\7-7/9\7-7/9\7-7/9\7-7/9\7-7/9\7-7/9\7-7/9\7-7/9\7--7/9\7--7/9\7--7/9\7--7/9\7--7/9\7-|
D|-----------------------------------------------------------------------------------------|
A|-----------------------------------------------------------------------------------------|
E|-----------------------------------------------------------------------------------------|

  [only play this the 1st time]
e|----------------------------------------------------------------------|
B|--12b12b12b12b12b12b12b12b-------1212\1010\88\77/88\77\55-------------| x4
G|----------------------------------------------------------------------|
D|----------------------------------------------------------------------|
A|----------------------------------------------------------------------|
E|----------------------------------------------------------------------|

I couldnt figure out this last part here this s all i got
e|----------------------------------------------------------------------|
B|-1212-12-10-12-10-1212-12-10-12-10-12b12b12b12b12b--------------------|
G|----------------------------------------------------------------------|
D|----------------------------------------------------------------------|
A|----------------------------------------------------------------------|
E|----------------------------------------------------------------------|

| b  bend note
| /  slide up
| \  slide down
| h  hammer-on
| p  pull-off
| ~  vibrato
| +  harmonic
| x  Mute note





Comments


Popular Built To Spill tabs & chords
Car 1 Chords
Kicked It In The Sun Chords
Strange Chords
Twin Falls Idaho Chords
Broken Chairs Tabs
Fling Tabs
Mess With Time Tabs
Plan Tabs
Traces 1 Tabs
Mess With Time Chords Ukulele


Song lyrics



↑ Back to top | Tablatures and chords are parodies/interpretations of the original songs. You may use it for private study, scholarship, research or language learning purposes only
© 2014 AZChords.com Contact us | Privacy policy | DMCA | Add/correct tabs | Request tabs | Top 50 tabs