» » »

Buckley Jeff, Vancouver Bass tabs (ver.1)

Artists:  A B C D E F G H I J K L M N O P Q R S T U V W X Y Z # 

Vancouver Bass tabs (ver.1)

Buckley Jeff Tabs
 Rating:
4/5 (4 votes)
Vancouver lessons Tabs too difficult? Try these video lessons and learn fast
                Jeff Buckley



This one proved a tougher nut to crack than I had 
originally thought. 

Firstly, there is a bar during the intro of unusual 
length, bar 4, I believe it is
in 9/8.

Secondly, although many of the bass lines are
repeated, there are slight variations from time
to time, so I have basically tabbed the entire 
song bar for bar.

And lastly, the outro section was a real pain.
See note.
Other than that I hope it is of some use.


Standard Tuning

Intro 
------------------|-----------------|-----------------
------------------|-----------------|---4-4-4-5-4-2-0-
-er-3-5-3-0---0-2-|-2-5-5-5-5-5-3-2-|-2---------------
------------3-----|-----------------|-----------------

-------------------|-----------------|-----------------
---2-2-2-2-2-0-----|-----------------|-----------------
-3-------------3-2-|-3-5-3-2-0---0-2-|-5-5-5-5-5-3-2-3-
-------------------|-----------3-----|-----------------

-----------------|-----------------|------------------
-4-4-4-4-4-5-4---|-2-2-2-2-2-0-----|------------------
---------------5-|-------------3-2-|-3-5-3-2-0---0-2--
-----------------|-----------------|-----------3------

-----------------|-----------------|-----------------
-----------------|-4-4-4-5-4-------|-2-2-2-2-2-0-----
-5-5-5-5-5-3-2-3-|-----------5---5-|-------------3-2-
-----------------|-------------7---|-----------------

-----------------|---------------|------------------
-----------------|---------------|-4-4-4-5-4--------
-3-5-3-2-0---0-2-|-5-5-5-5-3-2-3-|-----------5---5--
-----------3-----|---------------|-------------7----

-----------------|-----------------|-----------------
-2-2-2-2-2-0-----|-----------------|-----------------
-------------3-2-|-3-5-3-2-0---0-2-|-5-5-5-5-5-3-2-3-
-----------------|-----------3-----|-----------------

-----------------|-----------------|-----------------
-4-4-4-5-4-------|-----------------|-----------------
-----------5-5-0-|-----------------|-----------------
-----------------|-3-3-3-3-3-3-3-3-|-3-3-3-3-3-3-3-3-


Verse

-----------|------|------------|---------------------
-----------|------|--4-5-7-5-4-|--2-0----------------
---3-------|----5-|------------|-------3-2-0---------
-3---3-5-3-|-2----|------------|-------------3-------

-----------|-------|-------------|-------------------
-----------|---4-5-|-7---7-/9-\7-|-5-----------------
---3-------|-------|---7---------|----5--3-2---------
-3---3-5-3-|-2-----|-------------|-------------------

-----------|-----------|---------|-------------------
-----------|-----------|-4-7-5---|-------------------
---3-5-3-2-|---5-------|-------5-|-7-------5---------
-3---------|-2---5-3-5-|---------|-----------5-------

-----------------|-------------2-2-|-2-2---2-4----------
-------------4-4-|-4-4-4-2-4-5-----|-----2-----5-5-5----
-3---3---3-5-----|-----------------|-----------------5\-
---3---3---------|-----------------|--------------------

-----------------|-------------2-2-|-2-2-2-2-2-----
-------------4-4-|-4-4-4-2-4-5-----|---------------
-3---3---3-5-----|-----------------|---------------
---3---3---------|-----------------|---------------

-----------------|-----------------
-----------------|-----------------
-----------------|-----------------
-3-3-3-3-3-3-3-3-|-3-3-3-3-3-3-3-3-


Guitar Solo

-----------------|-----------------|-----------------|-----------------
-----------------|-----------------|-----------------|-----------------
-7-7-7-7-7-7-7-7-|-5-5-5-5-5-5-5-5-|-----------------|-----------------
-----------------|-----------------|-5-5-5-5-5-5-5-5-|-3-3-3-3-3-3-3-3-

-----------------|-----------------|-2-2-2-2-2-2-2-2-|-----------------
-2-2-2-2-2-2-2-2-|-4-4-4-4-4-4-4-4-|-----------------|-5-5-5-5-5-5-5-5-
-----------------|-----------------|-----------------|-----------------
-----------------|-----------------|-----------------|-----------------


2nd verse

-----------------|-----------------|-----------------|---------------------
-2---------------|-----------------|-----------------|---------------------
-----------------|-5---------------|-----------------|---------------------
-----------------|-----------------|-5---------------|-3-------------------

-----------------|-----------------|-----------------|---------------------
-2---------------|-4---------------|-----------------|---------------------
-----------------|-----------------|-5---------------|-3-------------------
-----------------|-----------------|-----------------|---------------------

Pre chorus

-----------------|-------------2-2-|-2-2---2-4-----------
-------------4-4-|-4-4-4-2-4-5-----|-----2-----5-5-5-----
-3---3---3-5-----|-----------------|-----------------5---
---3---3---------|-----------------|-------------------3-

-----------------|-------------2-2-|-2-2-2-2-2-----
-------------4-4-|-4-4-4-2-4-5-----|---------------
-3---3---3-5-----|-----------------|---------------
---3---3---------|-----------------|---------------

-----------------|-----------------
-----------------|-----------------
-----------------|-----------------
-3-3-3-3-3-3-3-3-|-3-3-3-3-3-3-3-3-

Outro

(Note: I found it very difficult to hear what the bass
 was playing note for note during this section, so the
 following is a close approximation. Also, the timing 
 is all over the place which makes it even more
 difficult to tab. As long as you have a feel for it, 
 it should be no problem)

----|--------|---------|-------|---------|-----------
----|--------|---------|-------|-3-------|-----------
-0--|-1------|---------|-------|---------|-0--0------
----|--------|-3-------|-1-----|-------1-|----------- 


----|---|-----|----|-------|---|------|-------|---------
----|---|---3-|--2-|-------|---|------|-------|---------
-1--|---|-----|----|--5--7-|-8-|-0--1-|-0-0-1-|---------
----|-3-|-1---|----|-------|---|------|-------|-1-------
            
Submit corrections

comments powered by Disqus
↑ Back to top | Buckley Jeff Bass for Vancouver. Lyrics for acoustic guitar and electric guitar. Tablatures and chords are parodies/interpretations of the original songs. You may use it for private study, scholarship, research or language learning purposes only